Acordes de Guitarra » M »Melendi » Tu jardín con enanitos (Tab)

Tu jardín con enanitos
Melendi

Letras, Acordes y Tabs para Guitarra, Bajo y Ukulele

  • e-----3-2-0---0-----0-|-------------|-----3-2-0-----------|---------------
    B-----------3---3-----|----3---3----|-----------3-0-----0-|------------3--
    G---2-------------0---|------0---0--|---2-----------0-----|----0---2-2----
    D-----0---------------|-------------|-----------------2---|--------2-0----
    A-------------3-------|--3----------|-------------0-------|---------------
    E---------------------|--------3----|---------------------|--0------------
    
    -----3-2-0---0-----0-|-------------|------------------------|
    -----------3---3-----|----3---3----|----------1-0---3----3--|
    ---2-------------0---|------0---0--|-------0------2---x--2--|
    -----0---------------|-------------|--0-0-------------------|
    -------------3-------|--3-----3----|------------------------|
    ---------------------|-------------|------------------------|
    
    Verso 1: (ARPEGIADO)
                        Em
    Hoy le pido a mis sueños
    C                 G
    Que te quiten la ropa
     B7              Em
    
  •                    MIm
    Hoy le pido a mis sueños
    DO                 SOL 
    Que te quiten la ropa
    SI7             MIm
    Que conviertan en besos
               Caad9                    RE
    Todos mis intentos de morderte la boca.
    
                          Cadd9
    Y aunque entiendo que tú,
                      RE          SOL                RE
    Tú siempre tienes la última palabra en esto del amor
                       Caad9         RE
    Yo hoy le pido a tu ángel de la guarda
              MIm           SOL                 Cadd9            RE 
    Que comparta, que me de valor y arrojo en la batalla, pa’ ganarla...
    
                           Caad9                       SOL
    Y es que yo no quiero pasar por tu vida como las modas
    
  • Intro: C G Em D / C G D
    
                        Em   C
    Hoy le pido a mis sueños
                       G  B7
    Que te quiten la ropa
                       Em
    Que conviertan en besos
                 C                   D
    Todos mis intentos de morderte la boca.
    
                          C   D
    Y aunque entiendo que tú
                           Em  D  G                 D
    Tú siempre tienes la última palabra en esto del amor
                          C            Em
    Yo hoy le pido a tu ángel de la guarda
            G                    D                 C       D
    Que comparta, que me de valor y arrojo en la batalla, pa’ ganarla...
    
    
  • intro: DO9 SOL MIm RE DO9 SOL RE
    
                         MIm
    Hoy le pido a mis sueños
    DO                 SOL
    Que te quiten la ropa
    SI7                MIm
    Que conviertan en besos
               DO                       RE
    Todos mis intentos de morderte la boca.
    
    
                          DO          RE
    Y aunque entiendo que tú,
                    SOL                              RE
    Tú siempre tienes la última palabra en esto del amor
                         DO            RE
    Yo hoy le pido a tu ángel de la guarda
              MIm           SOL                     DO            RE
    Que comparta, que me de valor y arrojo en la batalla, pa’ ganarla...
    
  • Facebook: sebastian.bustamante.7503314
    
    
    e-----3-2-0---0-----0- -------------
    B-----------3---3----- ----3---3----
    G---2-------------0--- ------0---0--
    D-----0--------------- -------------
    A-------------3------- --3-----3----
    E--------------------- -------------
    
    -----3-2-0----------- ---------------
    -----------3-0----0-- ------------3--
    ---2-----------0----- ----0---2-2----
    -----------------2--- ------2-0------
    -------------0------- ---------------
    --------------------- --0------------
    
    
    -----3-2-0---0-----0- -------------
    -----------3---3----- ----3---3----
    
  • +
    ¡Colabora con nosotros!
    Envíanos tu versión de esta canción

Letra de Tu jardín con enanitos
Verso 1: (ARPEGIADO)
Hoy le pido a mis sueños
Que te quiten la ropa
Que conviertan en besos
Todos mis intentos de morderte la boca.
Y aunque entiendo que tú,
Tú siempre tienes la última palabra en esto del amor
PRE-CORO: (RASGUEO: dos abajo por acorde)
Yo hoy le pido a tu ángel de la guarda
Que comparta, que me de valor y arrojo en la batalla, pa’ ganarla...
Y es que yo no quiero pasar por tu vida como las modas
No se asuste señorita, nadie le ha hablado de boda
Yo tan solo quiero ser las cuatro patas de tu cama
Tu guerra todas las noches, tu tregua cada mañana...
Quiero ser tu medicina, tus silencios y tus gritos
Tu ladrón, tu policía, tu jardín con enanitos
Quiero ser la escoba que en tu vida barra la tristeza
Quiero ser tu incertidumbre y sobretodo tu certeza.
VERSO 2: (PALM-MUTE)
Hoy le pido a la luna
Que me alargue esta noche
Y que alumbre con fuerza
Este sentimiento y bailen los corazones.
Y aunque entiendo que tú,
Serás siempre ese sueño que quizás nunca podré alcanzar
PRE-CORO: (RASGUEO: dos abajo por acorde)
Yo hoy le pido a tu ángel de la guarda
Que comparta, que me de valor y arrojo en la batalla, pa’ ganarla...
Y es que yo no quiero pasar por tu vida como las modas
No se asuste señorita, nadie le ha hablado de boda
Yo tan solo quiero ser las cuatro patas de tu cama
Tu guerra todas las noches, tu tregua cada mañana...
Quiero ser tu medicina, tus silencios y tus gritos
Tu ladrón, tu policía, tu jardín con enanitos
Quiero ser la escoba que en tu vida barra la tristeza
Quiero ser tu incertidumbre y sobretodo tu certeza.
Acompañamiento del solo: C G Em D / C G D
Y es que yo quiero ser el que nunca olvida tu cumpleaños
Quiero que seas mi rosa y mi espina aunque me hagas daño
Quiero ser tu carnaval, tus principios y tus finales
Quiero ser el mar dónde puedas ahogar todos tus males.
Quiero que seas mi tango de Gardel, mis octavillas
Mi media luna de miel, mi blues, mi octava maravilla
El baile de mi salón, la cremallera y los botones
Quiero que lleves tu falda y también mis pantalones
OUTRO: (RASGUEO: dd)
Tu astronauta, el primer hombre que pise tu luna
Clavando una bandera de locura
Para pintar tu vida de color, de pasión,
de sabor, de emoción y ternura
Sepa usted que yo ya no tengo cura sin tu amor.




[Tu jardín con enanitos chords][Tu jardín con enanitos cifra]
© LaCuerda.net · aviso legal · privacidad · es · en · pt · contacto