Acordes de Guitarra » M »M-Clan » Los periódicos de mañana (Tab)

Los periódicos de mañana
M-Clan

  • Letra y Acordes
    e---------------3p0-3p0h3----------------0---0----
    B--0--1--3--5---------------0--1--3---------0-----
    G--0--2--4--5---------------0--2--4--2------------
    D------------------------------------2------------
    A-------------------------------------------------
    E-------------------------------------------------
    
    e--------------3p0-3p0h3-2~-2-------------
    B--0--1--3--5-----------------------------
    G--0--2--4--5-----------------------------
    D------------------------------0--2--4----
    A-----------------------------------------
    E-----------------------------------------
    
    SOL         DO               SOL            RE7            SOL
    Desnudo al sol, mientras el mundo se derrumba a mí alrededor,
               DO              SOL             RE7         SOL
    Desnudo al sol no hay por que pedir perdón
             DO              SOL             RE7                SOL
    Me sorprendió una gran tormenta de energía positiva y yo
    
  • Letra y Acordes
    e---------------3p0-3p0h3----------------0---0----
    B--0--1--3--5---------------0--1--3---------0-----
    G--0--2--4--5---------------0--2--4--2------------
    D------------------------------------2------------
    A-------------------------------------------------
    E-------------------------------------------------
    
    e--------------3p0-3p0h3-2~-2-------------
    B--0--1--3--5-----------------------------
    G--0--2--4--5-----------------------------
    D------------------------------0--2--4----
    A-----------------------------------------
    E-----------------------------------------
    
    SOL       DO               SOL                  RE7
    Desnudo al sol, mientras el mundo se derrumba a mí alrededor,
       SOL        DO              SOL             RE7
    Desnudo al sol no hay por que pedir perdón
     MIm       DO           SOL        RE7              MIm
    Me sorprendió una gran tormenta de energía positiva y yo
    
  • +
    ¡Colabora con nosotros!
    Envíanos tu versión de esta canción

Letra de Los periódicos de mañana
Desnudo al sol, mientras el mundo se derrumba a mí alrededor,
Desnudo al sol no hay por que pedir perdón
Me sorprendió una gran tormenta de energía positiva y yo
Desnudo al sol y nada más.
Hay quien dice que puede ser perjudicial sin embargo
A mi no me hace mal, la mentira esta escrita
en los periódicos de mañana.
No me interesa lo que digan los políticos,
No me creo de la misa a la mitad
La mentira esta escrita en los periódicos de mañana
Desnudo al sol como en la era del hombre paleolítico
Miro el reloj pero hace tiempo que paro,
Se me olvido que te gustaría haber montado una revolución
Hazme el amor desnudo al sol
Estribillo 2 veces
Na, na , na , na , na fundiendo como estribillo



© LaCuerda.net · aviso legal · privacidad · contacto
DINAMICO