Acordes de Guitarra » M »Martin Valverde » Nadie te ama como yo (Tab)

Nadie te ama como yo
Martin Valverde

Letras, Acordes y Tabs para Guitarra, Bajo y Ukulele

  • INTRO: C,G,Am,F,Dm,G. (CIRCULO) .
    
    
     C             G           Am
    cuanto he esperado este momento,
    F             Dm            G
    cuanto he esperado que estuvieras asi,
    C             G              Am
    cuanto he esperado que me hablaras,
    F              Dm          G
    cuanto he esperado que vinieras a mi.
    
    
    C       G              Am
    yo se bien lo que has vivido,
    F       Dm                G
    se tambien porque has llorado,
    C       G                Am
    yo se bien lo que has sufrido,
    F          Dm            G
    
  • INTRO:     C      G/B      Am7 (Bis)
    
    C                G/B         Am7   Dm7
       Cuanto he esperado este momento,
                   F                 Gsus7  G7
    cuanto he esperado que estuvieras así,
    C                G/B            Am7  Dm7
       cuanto he esperado que me hablaras,
                   F                Gsus7 G7
    cuanto he esperado que vinieras a mi.
    
    C         G/B              Am7   Dm7
       Yo se bien lo que has vivido,
            F                  Gsus7 G7
    Yo se bien lo que  has llorado,
    C         G/B               Am7  Dm7
       yo se bien lo que has sufrido,
                F           Gsus7   G7    Gsus7     G7
    pues de tu lado no me he ido.
    
    
  • C           Em               Am
    Cuánto he esperado este momento,
    Dm          Dm/C            G/B    G7
    cuánto he esperado que estuvieras así.
    C           Em                  Am
    Cuánto he esperado que me hablaras,
    Dm          Dm/C           G
    cuánto he esperado que vinieras a mí.
    
    C      G/B              Am
    Yo sé bien lo que has vivido.
    Dm      F                 G
    sé también lo que has llorado.
    C      G/B               Am
    Yo sé bien lo que has sufrido,
    F          Dm            G    G4sus G7
    pues de tu lado no me he ido.
    
               C      G/B  Am               F    D/F# G
    Pues nadie te ama como Yo, pues nadie te ama como Yo.
    
  • LA canción
                C                  Em            Am   Am7
    E  --------------------------------------------------
    B  -------1-----------0-----------1-----------1------
    G  ----0-----0-----0-----0-----2-----2-----0-----0---
    D  --------------------------------------------------
    A  -------------2-----------0-----------3------------
    E  -3------------------------------------------------
    
    
                Dm                  F            G
    E  -------------------------------------3------------
    B  -------3-----------1-----------3-----------3------
    G  ----2-----2-----2-----2-----4-----4-----4-----4---
    D..-0------------------------------------------------
    A  -------------3-----------5------------------------
    E  --------------------------------------------------
    
    Y si la quieren tocar con rasgueo, aquí están las notas, 
    siguiendo las notas comunes y corrientes, la única 
    
  • e---------------------------------------------------|
    B----3---5-5-6---6-5-3-----3---5-5-6---6-5-3-3------|
    G--2---------------------2------------------5-------|
    D---------------------------------------------------|
    A---------------------------------------------------|
    E---------------------------------------------------|
    
    
    e---------------------------------------------------|
    B--3-5-6-8--8-6-5-3-3-5----6-5---6-5----------------|
    G------------------5----------7------7-5-5-7--------|
    D---------------------------------------------------|
    A---------------------------------------------------|
    E---------------------------------------------------|
    
    
    e---------------------------------------------------------------|
    B---------------------------------------------------------5-6-8-|
    G--5-7-9-9-10---10-9-7-5-5-5-7----5-7-9-9-10-12-10-9-7-5-7------|
    D---------------------------------------------------------------|
    
  • +
    ¡Colabora con nosotros!
    Envíanos tu versión de esta canción
  • Tutorial
    Nadie te ama como yo, Martin Valverde - Cover y Tutorial
    6:47
  • Tutorial
    HD
    nadie te ama como yo
    tutorial con guitarra acutisca
    8:44

Letra de Nadie te ama como yo
cuanto he esperado este momento,
cuanto he esperado que estuvieras asi,
cuanto he esperado que me hablaras,
cuanto he esperado que vinieras a mi.
yo se bien lo que has vivido,
se tambien porque has llorado,
yo se bien lo que has sufrido,
pues de tu lado no me he ido.
pues nadie te ama como yo,
pues nadie te ama, como yo,
mira la cruz, esa es mi mas grande prueba,
nadie te ama como yo.
pues nadie te ama como yo,
pues nadie te ama, como yo,
mira la cruz, fue por ti fue porque te amo,
nadie te ama, como yo.
yo se bien lo que me dices,
aunque aveces no me hables,
se muy bien lo que en ti sientes,
aunque nunca lo compartes.
yo a tu lado he caminado,
junto a ti yo siempre he ido,
y algunas veces te he cargado,
yo he sido tu mejor amigo.
pues nadie te ama como yo,
pues nadie te ama, como yo,
mira la cruz, esa es mi mas grande prueba,
nadie te ama como yo.
pues nadie te ama como yo,
pues nadie te ama, como yo,
mira la cruz, fue por ti fue porque te amo,
nadie te ama, como yo.




[Nadie te ama como yo chords][Nadie te ama como yo cifra]
© LaCuerda.net · aviso legal · privacidad · es · en · pt · contacto