Acordes de Guitarra » M »María josé Bravo » Señor, a quién iremos (Tab)

Señor, a quién iremos
María josé Bravo

Letras, Acordes y Tabs para Guitarra, Bajo y Ukulele

  •      RE                   SOL                  LA7
    E||-----------0--2--3--|--3--------3-----3--|--------------0-----|
    B||--------3-----------|--3-----3-----0-----|--------2--3-----3--|
    G||-----2--------------|--0--0--------------|-----0--------------|
    D||--0-----------------|--0-----------------|--------------------|
    A||--------------------|--2-----------------|--0-----------------|
    E||--------------------|--3-----------0-----|--------------------|
    
    
      LA7
    --0------------||
    --2------------||
    --0------------||
    --2------------||
    --0------------||
    ---------------||
    
    
    LA7             RE
    Señor, a quién iremos
    
  • +
    ¡Colabora con nosotros!
    Envíanos tu versión de esta canción

Letra de Señor, a quién iremos
Señor, a quién iremos
si tú eres nuestra vida;
Señor, a quién iremos
si tú eres nuestro amor,
si tú eres nuestro amor.
Quién como tú conoce
lo insondable de nuestro corazón;
a quién como a ti le pesan
nuestros dolores, nuestros errores
quién podría amar cómo tú
nuestra carne débil, nuestro barro frágil.
Quién como tú confía
en la mecha que humea en nuestro interior
quién como tú sostiene
nuestra esperanza malherida
y nuestros anhelos insaciables
quién como tú espera nuestro sí de amor.




[Señor, a quién iremos chords][Señor, a quién iremos cifra]
© LaCuerda.net · aviso legal · privacidad · es · en · pt · contacto
DINAMICO