Tablatura para Bajo de Marcos Witt: Yo te busco
Conexión · Inscripción
Letras y Acordes
Pantalla Completa
Imprimir
Versión Texto
Añadir Favorito
Otras Versiones

Mostrar Diagramas
Desfile Automático
Formato del Texto


Marcos Witt
Yo te busco(BAJ)
calidad:
mwit1415
AUTOR: David Bell
ALBUM: Dios de Pactos (2002)
Enviado por Joel
:Intro:        's'=slide

G]:----------------:--------:---------:---------:
D]:12s-14-14-----12:--------:---------:---------:
A]:-----------12---:5-------:---------:---------:
E]:----------------:--------:---------:---------:

:Estrofa:

Yo te busco...

G]:--------:--------:----------:---------:
D]:--------:--------:----------:---------:
A]:5-------:--------:5---------:---------:
E]:--------:--------:----------:---------:

Con fuego en...

G]:---------:------------:----------:---------:
D]:---------:---------10s:----------:---------:
A]:---------:------------:5---------:---------:
E]:3--------:------------:----------:---------:

Yo te busco...

G]:-----------:---------:-----------:----------:
D]:-----------:---------:-----------:----------:
A]:5----------:---------:5----------:----------:
E]:-----------:---------:-----------:----------:

Recibe mi...

G]:----------:-----------:----------------:
D]:----------:-----------:----------------:
A]:----------:-----------:5---------------:
E]:3---------:---------3s:----------------:

:Coro:

Te anhelo...

G]:---------------:-----------:-------------:----------:
D]:---------------:-----------:-------------:----------:
A]:9----10-----10s:-----------:-------------:----------:
E]:---------------:3---------5:7-----5------:----------:

Te amo mas...

G]:------------:----------:-----------:-------------:
D]:------------:----------:---------7s:12-----------:
A]:------------:7---------:5----------:----------12s:
E]:2-----3-----:----------:-----------:-------------:


G]:------------:-----------:-----------:-----------:-----------:
D]:----------7s:12---------:-----------:-----------:-----------:
A]:5-----------:--------12s:10---------:-----------:5--------7s:
E]:------------:-----------:--------10s:3----------:-----------:

G]:---------------------------------:
D]:12--12-12-12-12---12-12-12-12-12s:
A]:---------------------------------:
E]:---------------------------------:

:Estrofa:

Yo te busco...

                      ( x 2 veces )
G]:----------------------------:--------------------:
D]:------------10-12-12--10----:--------------------:
A]:---------12---------------12:--------------------:
E]:10-10-10--------------------:10-10-10-10-10-10-10:

Con fuego en...

G]:----------------------------:---------------------------:--------------------:
D]:----------------------------:------------10-12-12--10---:--------------------:
A]:----------------------------:---------12--------------12:--------------------:
E]:2-3-3-3-3-3-3:3-3-3-3-3-3-3s:10-10-10-------------------:10-10-10-10-10-10-10:

Yo te busco...

                     ( x 2 veces )
G]:----------------------------:--------------------:
D]:-------------10-12-12--10---:--------------------:
A]:----------12--------------12:--------------------:
E]:10-10-10--------------------:10-10-10-10-10-10-10:

Recibe mi adoracion...

G]:--------------:-----------------:---------------------------:-----------------:
D]:--------------:-----------------:------------10-12-12--10---:-----------------:
A]:------------5s:10-10-10-10-10-10:---------12--------------12:-----------------:
E]:3-3-3-3-3-3---:-----------------:10-10-10-------------------:10-10-10-10-10-10:

:Coro: ( x 2 )

Te anhelo...

G]:--------------------------:---------------:---------------:------------:
D]:--------------------------:---------------:---------------:------------:
A]:9-9-9-9-10-10-10-10-10-10s:---------------:---------------:------------:
E]:--------------------------:3-3-3-3-3-3-5-5:7-7-7-7-5-5-5-5:5-5-5-5-5-5s:

Te amo mas que...

G]:-----------------------:----------------:---------------------------:--------------------:
D]:-----------------------:----------------:------------10-12-12--10---:--------------------:
A]:-------------------5---:7-7-7-7---------:---------12--------------12:--------------------:
E]:2-2-2-2-3-3-3--5-7----7:---------0-0-0-0:10-10-10-------------------:10-10-10-10-10-10-10:

:Final:

ser...

G]:---------------------------:---------------------------:
D]:------------10-12-12--10---:------------10-12-12--10---:
A]:---------12--------------12:---------12--------------12:
E]:10-10-10-------------------:10-10-10-------------------:

Mas que a mi ser...

G]:---------------:----------------------------:------------------------------:
D]:---------------:-------------10-12-12--10---:------------10-12-14-12-10----:
A]:7-7-7-7--------:---------12---------------12:---------12-----------------12:
E]:--------0-0-0-0:10-10-10--------------------:10-10-10----------------------:

Mas que a mi ser...

G]:---------------:----------:
D]:---------------:----------:
A]:7-7-7-7--------:5---------:
E]:--------0-0-0-0:----------:


G]:------------------:-----------------------:-----------:----------------------:
D]:-------12-14---14s:16--14-16s-17--16---12s:---------7s:12--12-12-12-12--12-12:
A]:12-14-------------:-----------------------:5----------:----------------------:
E]:------------------:-----------------------:-----------:----------------------:

G]:------------:
D]:------------:
A]:------------:
E]:10----------:
Este fichero es trabajo propio de su transcriptor y representa su interpretación personal de la canción. El material contenido en esta página es
para exclusivo uso privado, por lo que se prohibe su reproducción o retransmisión, así como su uso para fines comerciales.
© LaCuerda.net · Aviso Legal · Privacidad