Acordes de Guitarra » M »Marcos Witt » Yo Creo (Tab)

Yo Creo
Marcos Witt

Letras, Notas, Punteos, Tablaturas y Acordes de Guitarra (Tabs & Chords)

  • Letra y Acordes
    Intro: D   G
    D
    Yo creo en el poder de Dios
    G
    Yo creo en su resurrección
    G   F#  Em
    D                                  D       C    D
    Yo creo que regresara y que a su pueblo llevara
    
    
    ::Coro::  ES EN ESTE ORDEN D5 D5 D5 D5 C5 D
    
    D                     G
    Cantamos, alabamos,    danzamos, exaltamos,
    E        C          D
    gritamos todos al señor
    D                     G
    Bailamos, brincamos,  saltamos gozamos,
    E        C          D
    gritamos todos al señor
    
  • Letra y Acordes
    |D7     |D7  (F# G A)|D7     |D7  (D C A)|
    No tocar los acordes completos en (F# G A) y (D C A) solo las notas
    
    |D          |            |         |         )
     Yo creo en el poder de Dios
    |G          |            |         |(al 4to tiempo) G D/F#
     Yo creo en su resurrección
    |Em       |          |G            |           |D
      Yo creo que regresara y que a su pueblo llevara
    
    
    ::Coro::
    
    D|        |            G|         |          )
     Cantamos, alabamos,     danzamos, exaltamos,
    Em|          C|          D|        |         )
        gritamos todos al Señor
    D|         |            G|         |         )
      Bailamos,  brincamos,  saltamos   gozamos,
    Em|          C|          D|        |         )
    
  • Tablatura
    E -------------------------------------------
    A -5-5---------------------------------------
    D -------7-----7-----7------4-5-7------------
    G -----5---5-5---5-5---5-5-------------------
    B -------------------------------------------
    e -------------------------------------------
    
    E -------------------------------------------
    A -5-5---------------------------------5-----
    D -------7-----7-----7--------------4--------
    G -----5---5-5---5-5---5-5---5h7p5-----------
    B -------------------------------------------
    e -------------------------------------------
    
    VERSO
    D
    Yo creo en el poder de Dios
    G                            G   D/F#
    Yo creo en su resurrección
      Em             G
    
  • Tablatura
        D7                           G
     G|-----5-5-5-5-5---5----------------5-5-5-5-5---5-5s7s5---|
     D|---------------7---4-4-4-5-7----------------7---------4-|
     A|-5-5--------------------------5-5-----------------------|
    
           D
    Verso:   Yo creo en el poder de Dios
           G
             Yo creo en su resurrección
    G-D/F#-Em                      G
             Yo creo que Él regresará
                                    D
             Y que a su pueblo llevará
    
        D
     G|-------------------------------------4s5-4-2---------|
     D|-7-7-7-7-7-----------------7-7-7-7-7---------5-3-2---|
     A|-5-5-5-5-5-(7)(7)(7)(7)-8--5-5-5-5-5---------------5-|
    
          D
    
  • +
    ¡Colabora con nosotros!
    Envíanos tu versión de esta canción

Letra de Yo Creo
Yo creo en el poder de Dios
Yo creo en su resurrección
Yo creo que regresara y que a su pueblo llevara
Cantamos, alabamos, danzamos, exaltamos,
gritamos todos al señor
Bailamos, brincamos, saltamos gozamos,
gritamos todos al señor
Yo creo en su redención
Yo creo en su salvación
Yo creo que su hijo dio y por su muerte vida dio
::Outro::
Yooooo creooooo (Yooooo creooooo)
Yooooo creooooo (Yooooo creooooo)
Yooooo creooooo Yo creo en el poder de Dios.
MARIO DANIEL ORTEGA CELAYA



© LaCuerda.net · Aviso Legal · Privacidad