Acordes de Guitarra » M »Marcos Witt » Venció (Tab)

Venció
Marcos Witt

Letras, Acordes y Tabs para Guitarra, Bajo y Ukulele

  •  C#m-F#m-E-A          C#m-F#m-E-A
    Venció,   Cristo venció
        C#m-F#m-E-A                 C#m-F#m-E-A
    Venció,       al diablo en la cruz
        C#m-F#m-E-A         C#m-F#m-E-A
    Venció,     Cristo venció
        C#m-F#m-E-A            C#m-F#m-E-A
    Venció,       a toda potestad
    
    - PUENTE 1 -
            C#m          F#              A              G#
    Él es Jesús hijo de Dios y en él nadie se puede perder
            C#m          F#            A                    G#
    Él dijo que el es la luz, es el camino, la vida y la verdad
    
    
     C#m-F#m-E-A          C#m-F#m-E-A
    Venció,   Cristo venció
        C#m-F#m-E-A                 C#m-F#m-E-A
    Venció,       al diablo en la cruz
    
  • DFA#DO#m7Do#m7(add4)   Fa#m7(add4)   FA#9   Do#m7(add4)
    Venció
    
    FA#DFA#DO#m74)    FFA#9       Do#m7(add4)  Fa#m7(add4)  Fa#9  Do#m7(add4)
                 Cristo venció
    
    FA#DFA#DO#m74)  FFA#9   Do#m7(add4)   Fa#m7(add4)   Fa#9  Do#m7(add4)
                  Venció
    
    FA#DFA#m7dd4) FFA#9    Do#m7(add4)  Fa#m7(add4)  Fa#9
           al diablo en la cruz
    
    DFA#DO#m7o#m7(add4)   Fa#m7(add4)    FA#9   Do#m7(add4)
    Venció
    
    FA#DFA#DO#m74)   FFA#9       Do#m7(add4)   Fa#m7(add4)   Fa#9   Do#m7(add4)
                Cristo venció
    
    FA#DFA#DO#m74)  FFA#9  Do#m7(add4)   Fa#m7(add4)   Fa#9   Do#m7(add4)
                 Venció
    
  •       C#m7 Asus/C#           C#m7 Asus/C#
       Venció             Cristo venció
          C#m7 Asus/C#           C#m7 Asus/C#
       Venció             Al diablo en la cruz
          C#m7 Asus/C#           C#m7 Asus/C#
       Venció             Cristo venció
          C#m7 Asus/C#           C#m7 Asus/C#
       Venció             A toda potestad
    
    
    
            C#m7        F#7
    Él es Jesús Hijo de Dios
            A            G#7
    Y en El nada se puede perder
            C#m7         F#7
    Él dijo que Él es la Luz
            A                  G#7
    Es el Camino, la Vida y la Verdad
    
    
  • INTRO
    BAJO SOLO X 4
    TODOS X8
    G |---------------|---------------|---------------|---------------|
    D |---2-4-4-2-----|---2-4-4-2-----|---2-4-4-2-----|---2-4-4-2-----|
    A |-4---------4-2-|-4---------4-2-|-4---------4-2-|-4---------4-2-|
    E |---------------|---------------|---------------|---------------|
    
    CORO
    Venció… Cristo venció, venció… al diablo en la cruz
    Venció… Cristo venció, venció… a toda potestad
    G |---------------|---------------|---------------|---------------|
    D |---2-4-4-2-----|---2-4-4-2-----|---2-4-4-2-----|---2-4-4-2-----|
    A |-4---------4-2-|-4---------4-2-|-4---------4-2-|-4---------4-2-|
    E |---------------|---------------|---------------|---------------|
    
    VERSO
    Él es Jesús,   Hijo de Dios       y en El nadie se puede perder      Él dijo
    Él nos salvó,  con su  poder     muriendo por toda la humanidad       Resuci
    G |----6-------6-----|------------4-----|------------------|----------------|
    D |--------6-6---2-3-|----4---4-4-------|------------------|6-6---6-
  • ESTA LO SAQUE DEL DE VENCIO SI LES GUSTA VOTEN LA CALIDAD
    PARA QUE NO LO QUITEN
    
    T=GOLPE C/PULGAR   P=LATIGAZO (jalar) DE CUERDA
    S=DESLIZAR A LA SIG NOTA
    
    G--------------------------------
    D------2---4-4--2--------------
    A--4----------------4--2--------
    E---------------------------------
       SE REPITE DURANTE EL CORO
    
    EN LA ESTROFA:
    G---------------------------------------------------
    D---------------------4P---4P--------------7P---7P----7P-7P
    A-4T---4T-4T-------------------------------------------
    E--------------6TS-2T----2T-----2T-3T-4T-5T--5T----4T
    
    EN EL PAP PAP PARARARAP PAP.... 1 PARTE
    TOCARLO RAPIDO
    
    G--------------------------------------------
    D-----------------2---2------2S-4---------
    A--4-4---4-2-4----4------4------------------
    E----------------------------------------------
    
    EN EL PAP PAP PARARARAP PAP.... 2 PARTE
    TOCARLO RAPIDO
    
    G--------------------2-----2--------------------
    D-----4-4---4-2-4-----4-------4S-2—----------------
    A----------------------------------------4-4-
  • +
    ¡Colabora con nosotros!
    Envíanos tu versión de esta canción

Letra de Venció
Venció, Cristo venció
Venció, al diablo en la cruz
Venció, Cristo venció
Venció, a toda potestad
Él es Jesús hijo de Dios y en él nadie se puede perder
Él dijo que el es la luz, es el camino, la vida y la verdad
Venció, Cristo venció
Venció, al diablo en la cruz
Venció, Cristo venció
Venció, a toda potestad
Él nos salvó con su poder muriendo por toda la humanidad
Resucitó y él vive hoy venciendo al diablo y toda potestad
Venció, Cristo venció
Venció, al diablo en la cruz
Venció, Cristo venció
Venció, a toda potestad
Chords by: Edgar Rdgz.




[Venció chords][Venció cifra]
© LaCuerda.net · aviso legal · privacidad · es · en · pt · contacto