Acordes de Guitarra » M »Marcos Witt » La fuerza de tu amor (Tab)

La fuerza de tu amor
Marcos Witt

Letras, Acordes y Tabs para Guitarra, Bajo y Ukulele

  • Dadd2
            Dm9     Cadd2  Dadd2
    A veces en mi soledad
             Dm9       Cadd2  Dadd2
    Viviendo solo por vivir
                  Dm9         Cadd2  Dadd2
    Cuando pienso que no puedo más
           Dm9      Cadd2
    Sé que tu estas aquí
       Bb/Dm9            Cadd2       G
    Hay algo de ti, que está en mí
                    Asus4-A
    Soy atraído por ti
    
    Coro:
          Dadd2*-Dm9* Cadd2       (en lugar de Dm9 es Bb5)
    Es la fuerza      de tu amor
              Dadd2*-Dm9*  Cadd2
    Es como un rayo     que parte el corazón
           Dadd2*-Dm9*  Cadd2
    
  • E|-------------------------8-10----------------------------------------|
    B|----------------6h8h10-8------10-13----------------------------------|
    G|--9-7-9h10--9-7---------------------12-14----------------------------|
    D|------------------------------------------15-17-------15-14-12-------|
    A|------------------------------------------------17-19----------12-15-|
    E|---------------------------------------------------------------------|
    
    E|---------------------------------|
    B|-----------------13-15--17-15-14-|
    G|-----------12-14-----------------|
    D|-----12-14-----------------------|
    A|--15-----------------------------|
    E|---------------------------------|
    
    Es mi primera transcripción,
    espero que les sirva.
    
    Dios los bendiga!!!
  • +
    ¡Colabora con nosotros!
    Envíanos tu versión de esta canción

Letra de La fuerza de tu amor
A veces en mi soledad
Viviendo solo por vivir
Cuando pienso que no puedo más
Sé que tu estas aquí
Hay algo de ti, que está en mí
Soy atraído por ti
Es la fuerza de tu amor
Es como un rayo que parte el corazón
Son tus manos que sanan mi dolor
Atraído soy por la fuerza de tu amor
Puedo estar lejos de ti
Y no escuchar tu voz
La brújula no guía más
Perdido estoy sin dirección
Pero hay algo de ti que está en mí
Soy atraído por ti
Tonos raros:
Tonos quintos:




[La fuerza de tu amor chords][La fuerza de tu amor cifra]
© LaCuerda.net · aviso legal · privacidad · es · en · pt · contacto
DINAMICO