GuitarraViva aterriza en LaCuerda
Nestor Cano, Coalo Zamorano
Vivencias
E|-------------------------8-10----------------------------------------|
B|----------------6h8h10-8------10-13----------------------------------|
G|--9-7-9h10--9-7---------------------12-14----------------------------|
D|------------------------------------------15-17-------15-14-12-------|
A|------------------------------------------------17-19----------12-15-|
E|---------------------------------------------------------------------|

E|---------------------------------|
B|-----------------13-15--17-15-14-|
G|-----------12-14-----------------|
D|-----12-14-----------------------|
A|--15-----------------------------|
E|---------------------------------|

Es mi primera transcripción,
espero que les sirva.

Dios los bendiga!!!
Este fichero es trabajo propio de su transcriptor y representa su interpretación personal de la canción. El material contenido en esta página es
para exclusivo uso privado, por lo que se prohibe su reproducción o retransmisión, así como su uso para fines comerciales.
© LaCuerda.net · aviso legal · privacidad · es · en · pt · contacto