Acordes de Guitarra » M »Marco Barrientos » Mi fiel refugio (Tab)

Mi fiel refugio
Marco Barrientos

  • Letra y Acordes
    Intro: G/B, Cm, F, Bb, Eb, Cm, D; (G, F/A, G/B)
           G/B, Cm, F, Bb, Eb, Cm, D;
    
    
    G/B      Cm   F        Bb    Eb
        Eres mi amor, eres mi pasión
             Cm    Dm    F   Gm
        eres todo cuanto anhelé
    G/B         Cm     F       Bb    Eb
        fue tu gracia que alcanzó mi ser
                 Cm      D         Gm
        no hay palabras como agradecer.
    
    G/B         Cm             F
        Eres mi paz, mi provisión
                  Bb                Eb
        eres mi fuerza en la aflicción
                  Cm                  D            G  F/A G/B
        mi fiel refugio en quien yo siempre confiaré - e - e.
    
    
  • Tablatura
    MI Fiel Refugio(Cm)
    
    Intro: Cm - F - Bb - Eb - Cm - D7(b9) - G - F/A -
    G7(b9)/B - Cm - F - Bb - Eb - Cm - D7(b9) - Gm9
    
                Cm     F            Bb       Eb          Cm    D7(b9)
    -----------|------|------------|--------|-----------|-----|------
    -6/8/6-----|--6h8-|--4/6/4-----|----4/6-|-----------|-----|------
    -------7-7h|8-----|5-------5-5/|7-------|---8p7-----|-----|8--7--
    -----------|------|------------|--------|8------8-8/|10---|10----
    -----------|------|------------|--------|-----------|-----|------
    -----------|------|------------|--------|-----------|-----|------
    
    G - F/A - G7(b9)/B   sax..  Cm        F               Bb
    -7---8--|10-13h15-13-------|---13/15-|---13----------|---11/13-
    --------|------------15-15/|16-------|13----16-13-13h|15-------
    --------|------------------|---------|---------------|---------
    -9--10--|12----------------|---------|---------------|---------
    --------|------------------|---------|---------------|---------
    --------|------------------|---------|---------------|---------
    
  • +
    ¡Colabora con nosotros!
    Envíanos tu versión de esta canción

Letra de Mi fiel refugio
Eres mi amor, eres mi pasión
eres todo cuanto anhelé
fue tu gracia que alcanzó mi ser
no hay palabras como agradecer.
Eres mi paz, mi provisión
eres mi fuerza en la aflicción
mi fiel refugio en quien yo siempre confiaré - e - e.
quiero rendir mi corazón
derramo mi perfume hoy sin condició - ón.



© LaCuerda.net · aviso legal · privacidad · contacto
DINAMICO