Acordes de Guitarra » M »Marco Barrientos » Ilumina (Tab)

Ilumina
Marco Barrientos

Letras, Acordes y Tabs para Guitarra, Bajo y Ukulele

  • Intro: Dm F Am C (x3) Bb C Dm C Bb C Dm
    
    Verso:
    
    Dm                      Am7                   C  Dm
    Creaste el sol y las estrellas, los pintaste de color
                         Am                         Gm  Bb  Dm  C
    Nos creaste y diste vida, nos llenaste de tu amor
    Dm                    Am7                  C     Dm
    Los que estaban en tinieblas, en nosotros ven tu luz
                       Am                           Gm  Bb  Dm  C
    Ilumina nuestros rostros con la gloria de tu cruz
    
    Coro:
    
    Dm       F     Gm    Bb
    Enciendenos, Alumbranos
          Dm            F         C
    Para luz del mundo ser, Y brillar con tu poder
    Dm    F     Gm    Bb
    
  • Intro: REm FA LAm DO (x3)
    SIb FA SOLm MI REm DO LAm
    SIb FA SOLm MI LAm REm
    
    E|---------------------------------------------------------
    B|---------------------------------------------------------
    G|---14--14--14--14--14--14--14--14--12--12--12--12--12----
    D|-17--17--17--17--15--15--15--15--14--14--14--14--14--14--
    A|---------------------------------------------------------
    E|---------------------------------------------------------
    
    E|------------|
    B|------------|
    G|------------|
    D|---17--17---|
    A|-15--15-----| (x3)
    E|------------|
    
    
    E|----------------------------------------------------|
    
  • Dm F Am C (x3)
    A# F Gm E Dm C Am
    A# F Gm E Am Dm
    
    E|--5--5--5--5--5--5--5--5--3--3--3--3--3--3--3--3
    B|-8--8--8--8--6--6--6--6--5--5--5--5--5--5--1--1--  (x3)
    
    B|------------------------------13s15--|
    G|--10-12-9-7---------10-12-9-14--------|
    D|8-----------10-7-8-------------------|
    
    PIANO                       Acordes (Dm -F - Am - C)
    D-C-A#-A-F
    D-C-A#-A-E
    C-A#-A-G-E
    C-C-A#-A-F (Esto lo hace en todo el verso)
    
    Verso:
    Dm                       Am7                C   Dm
    Creaste el sol y las estrellas, los pintaste de color
    
  • +
    ¡Colabora con nosotros!
    Envíanos tu versión de esta canción

Letra de Ilumina
Verso:
Creaste el sol y las estrellas, los pintaste de color
Nos creaste y diste vida, nos llenaste de tu amor
Los que estaban en tinieblas, en nosotros ven tu luz
Ilumina nuestros rostros con la gloria de tu cruz
Enciendenos, Alumbranos
Para luz del mundo ser, Y brillar con tu poder
Avivanos, Iluminanos
Y que el mundo pueda ver, Tu amor resplandecer
Instrumental:
Tu gloria, Dios eterno brilla
Mas que el sol, tu gloria
Alumbra mi ciudad




[Ilumina chords][Ilumina cifra]
© LaCuerda.net · aviso legal · privacidad · es · en · pt · contacto