Acordes de Guitarra » M »Marco Barrientos » Cristo eres Rey (Tab)

Cristo eres Rey
Marco Barrientos

Letras, Acordes y Tabs para Guitarra, Bajo y Ukulele

  • Intro: F   G# Bb F C
    
    F
    Cristo eres Rey Cristo eres Señor
        Dm                 Bb     Gm
    gloria te dare para siempre
             C
    para siempre
    
    Repetir 3 veces lo anterior
    
    Bb        C        Am  Dm      
    Tu eres todo para mi 
    Bb         C        F
    tu reinas con autoridad 
    Bb         C         Am       Dm
    y con mi boca te exalto oh Señor
    Bb               G            C 
    proclamando al mundo tu majestad
    
    
  •   F
    //Cristo eres Rey Cristo eres Señor
        Dm                Bb
    gloria te dare para siempre
    Gm       Csus-C (Sugiero hacer estos acordes
    para siempre//   con cejilla Csus-C suena mejor)
    
    I  Bb        C        Am          Dm
       Tu eres todo para mi Jesús,
       Bb        C          F     Eb-F
       tu reinas con autoridad
       Bb        C         Am        Dm
       y con mi boca te exalto oh Señor
       Bb              Gm           Csus-C
       proclamando al mundo tu majestad
    
    
    II Bb          C         Am  Dm
        Tu eres justo y verdadero
        Bb       C              F   Eb-F
    
  •      F C/F    Bb/F   F    F  C/F   Bb/F   F
    C) Cristo,     eres Rey. Cristo, eres Señor.
        Dm                   Bb    (F/A) Gm      Csus4   C
       Gloria te daré para siempre,         para siempre.  [X3]
    
    
     Bb         C        Am7    Dm
    V1)Tú eres todo para mí, Jesús.
     Bb           C         F
       Tú reinas con autoridad.
     Bb          C        Am       Dm
       Y con mi boca te exalto, Señor
     Bb                Gm          Csus4   C
       Proclamando al mundo tu majestad.
    
    
        F C/F    Bb/F   F    F  C/F   Bb/F   F
    C) Cristo,     eres Rey. Cristo, eres Señor.
        Dm                   Bb    (F/A) Gm      Csus4   C
       Gloria te daré para siempre,         para siempre.  [X2]
    
  • Afinacion: G D A E B
    
      Intro    (0:15)     X16           X4        X4        X4         X4
    G |-------|---------------|-----------|---------|---------|----------|
    D |-------|---------------|-----------|---------|---------|----------|
    A |-------|--8-8-8-8------|-----------|---------|-8-8-8-8-|----------|
    E |--1----|---------------|-----------|-6-6-6-6-|---------|-8-8-8-8--|
    B |-------|---------------|--9-9-9-9--|---------|---------|----------|
    
      Coros   X9             X4
    G |----------|--------------|----------------------------------------
    D |----------|--------------|----------------------------------------
    A |-8-8-8-8--|--------------|----------------------------------------
    E |----------|-10-10-10-10--|-6-6---6-5---3----3-3-3-3-3-3-3-8-8—-8-8
    B |----------|--------------|----------------------------------------
    
    G |--------------------------|
    D |--------------------------|
    A |--------------------------|
    E |-8-8--8-8-8-8-8-8-8-------|
    B |--------------------------|
    
      Versos
    G |----
  • +
    ¡Colabora con nosotros!
    Envíanos tu versión de esta canción

Letra de Cristo eres Rey
Cristo eres Rey Cristo eres Señor
gloria te dare para siempre
para siempre
Repetir 3 veces lo anterior
Tu eres todo para mi
tu reinas con autoridad
y con mi boca te exalto oh Señor
proclamando al mundo tu majestad
//Cristo eres Rey Cristo eres Señor
gloria te dare para siempre
para siempre//
Tu eres justo y verdadero
Tu misericordia es sin fin
y con mi vida te alabo oh señor
reconociendo tu autoridad
//Cristo eres Rey Cristo eres Señor
gloria te dare para siempre
para siempre//
Tu eres todo para mi
tu reinas con autoridad
y con mi boca te exalto oh Señor
proclamando al mundo tu majestad
proclamando al mundo tu majestad
proclamando al mundo tu majestad
Sube un Tono: G Em C Am D (punteo)


Por Siempre, por siempre. AMEN




[Cristo eres Rey chords][Cristo eres Rey cifra]
© LaCuerda.net · aviso legal · privacidad · es · en · pt · contacto