Acordes de Guitarra » M »Marco Barrientos » Avívanos (Tab)

Avívanos
Marco Barrientos

Letras, Acordes y Tabs para Guitarra, Bajo y Ukulele

  • Em F#m G   D Em F#m
    
    
    Em              F#m      G
       Que tu reino se establesca en mi
    
    D                    Em   F#m
       Que en mi vida resplandescas tu
    
    Em         F#m  G             A
       Abro mi corazon a tu voluntad
    
                        Em   F#m   G
       Abre los cielos Dios, Haz llover
    
                      Em   F#m    G
       Sobre nosotros hoy, Haz llover
    
    Em             F#m  G
       Que tu obra se avive aqui
    
  • INTRO: Em F#m G   D Em F#m
    
    0:24
    e|--7-7-7-7-7-7-10-12-7-7-7-7-7-7-10-12-----------------------------
    B|-------------------------------------10-10-10-10-10-10-8-8-7-7-7-7
    G|------------------------------------------------------------------
    D|------------------------------------------------------------------
    A|------------------------------------------------------------------
    E|------------------------------------------------------------------
    
    e|--7-7-7-7-7-7-10-12-7-7-7-7-7-7-10-12-----------------------------
    B|--------------------------------------10-10-10-10-10-10-8-8-7----5
    G|------------------------------------------------------------------
    D|------------------------------------------------------------------
    A|------------------------------------------------------------------
    E|------------------------------------------------------------------
    
    
    
    
    
  • E|--------------------------------------------------------------------------
    B|--7--7--7--7--7--7--7--7--12--12--12--12--12--12--15--17--12--12--12--12--
    G|--6--6--6--6--6--6--6--6--------------------------------------------------
    D|--4--4--4--4--4--4--4--4--9---9---9---9---9---9---12--14--9---9---9---9---
    A|--------------------------------------------------------------------------
    E|--------------------------------------------------------------------------
    
    
    E|--------------------------------------------------------------------------
    B|12--12--15--17--10--10--10--10--10--10--8--8--7--7--7--7--7--7--7--7--12--
    G|--------------------------------------------------------------------------
    D|9---9---12--14--7---7---7---7---7---7---5--5--4--4--4--4--4--4--4--4--9---
    A|--------------------------------------------------------------------------
    E|--------------------------------------------------------------------------
    
    
    E|--------------------------------------------------------------------------
    B|12--12--12--12--12--15--17--12--12--12--12--12--12--15--17--10--10--10--10
    G|--------------------------------------------------------------------------
    D|9---9---9---9---9---12--14--9---9---9---9---9---9---12--14--7---7---7---7-
    
  • Intro:
    e|------------------------------|
    a|-7(4)-9-9-10(4)-5(4)-7-7-9(4)-|
    d|------------------------------| x4
    g|------------------------------|
    
    Versos 1 & 2:
    e|------------------------------
    a|-7(4)-9-9-10(4)-5(4)-7-7-9(4)-
    d|------------------------------
    g|------------------------------
    
    
    ----------------------12-12-12-14-14-15-12-12-12-14-14-15-|
    -7(4)-9-9-10(4)-12(4)-------------------------------------|
    ----------------------------------------------------------|
    ----------------------------------------------------------|
    
    Coro: Avivanos...
    e|---------------------------------|
    a|---------------------------------|
    d|-5(4)-7-9-10(4)-9(4)-14(4)-10(4)-|
    g|---------------------------------|
    
    Instrumental:
    e|------------------------------------|
    a|------------------------------------|
    d|-5(4)-7-9-10(4)-9(4)-14(4)-16(4)-17-|
    g|------------------------------------|
    
    Final:
    Coro y cae el la cuerda E
  • Intro:
    e|------------------------------|
    a|-7(6)-9-9-10(8)-5(6)-7-7-9(8)-|
    d|------------------------------| x4
    g|------------------------------|
    
    Versos 1 & 2:
    e|------------------------------|
    a|-7(6)-9-9-10(8)-5(6)-7-7-9(8)-|
    d|------------------------------|
    g|------------------------------|
    
    Precoro
    e|----------------------------------------------------------|
    a|-7(6)-9-9-10(8)-12(8)-0-0-0-0-0-0-0-0---------------------|
    d|----------------------------------------------------------|
    g|----------------------------------------------------------|
    
    
    e|-0-0-0-0-2-2-2-2-3-3-3-3-3-3-3-3--------------------------|
    a|----------------------------------------------------------|
    d|----------------------------------------------------------|x2
    g|----------------------------------------------------------|
    
    
    Coro: Avivanos...
    e|-------------------------------------------------|
    a|-10-10-10-10-10-10-10-10-10-10-12-12-14-14-10-10-|
    d|-------------------------------------------------|
    g|-------------
  • +
    ¡Colabora con nosotros!
    Envíanos tu versión de esta canción

Letra de Avívanos
Que tu reino se establesca en mi
Que en mi vida resplandescas tu
Abro mi corazon a tu voluntad
Abre los cielos Dios, Haz llover
Sobre nosotros hoy, Haz llover
Que tu obra se avive aqui
en la tierra hazla conocer
Dejanos ver tus obras y tu gran poder
Abre los cielos Dios, Haz llover
Sobre nosotros hoy, Haz llover
Avivanos (note: el bajo hace A, B antes de caer a C)
Tu gloria anhelamos ver
Restauranos
Tu rostro haz resplandecer
bueno aqui les dejo esta correccion le acomode uno q otro
acorde que estaba malo! le puse el intro, las notas del solo
bueno espero les sirva! pedro sosa puerto ordaz venezuela




[Avívanos chords][Avívanos cifra]
© LaCuerda.net · aviso legal · privacidad · es · en · pt · contacto