Acordes de Guitarra » M »Marco Barrientos » Arde en mí (Tab)

Arde en mí
Marco Barrientos

Letras, Acordes y Tabs para Guitarra, Bajo y Ukulele

  • Em7
    El brillo de Tu rostro
     Am7
    Alumbra mi oscuridad
    Em7
    Te acuerdas que soy polvo
           Am7          Em
    Y me vuelves a inspirar
    
    Am7           B7             G        Em
    Me acerco  ante el trono en mi debilidad
           C            D
    Eres fuerte, Eres fuerte
    
    G
    Tu viento sopla
    Em7
    Como un estruendo
      C            G
    Aviva hoy el fuego
    
  •   Em   D/E    Em     Bm/E Gmaj7 Em/A D/A Em/A   Bm  Gmaj7
    E-0----0------0--------0-----------------------------------
    A-------------------------------0----0---0-------0---------
    D---9----7---------5---4-4------9----7-------5---4--4------
    G---X----X-------4-----X---0----X----X-----4-----0----0----
    B---8----7----5--------3-----3--8----7---5-------3-------3-
    e----------------------------------------------------------
    ESTA INTRO LA HACEN 2 VECES AL FINAL DE LA INTRO SOLAMENTE
    HACEN EL ARMONICO CON EL DEDO MEÑIQUE MAS O MENOS
    EN EL TRASTE 7 POR QUE SE QUEDAN EN Cmaj7/A
    LAS ESTROFAS VAN IGUAL CON ESE MISMO TAB
    
    Em   D/E   Em
    EL BRILLO DE TU ROSTRO
    Am      Asus2    Gmaj7
    ALUMBRA MI OSCURIDAD
    Em   D/E   Em
    TE ACUERDAS QUE SOY POLVO
    Am      Asus2    Gmaj7
    Y ME VUELVES A INSPIRAR
    
  •   Em   D/E  Cmaj7/E   Bm Cmaj Em/A D/A  Cmaj7/A Bm Cmaj7
    E-0----0------0--------------------------------------------
    A-----------------------------0----0-----0-----------------
    D---9----7---------5---4--5-----9----7-------5--4--5-------
    G---9----7-------4-----4--4-----9----7-----4----4--4------
    B---8----7----5--------3--5-----8----7---5------3--5-------
    e----------------------------------------------------------
    ESTA INTRO LA HACEN 2 VECES AL FINAL DE LA INTRO SOLAMENTE
    HACEN EL ARMONICO CON EL DEDO MEÑIQUE MAS O MENOS
    EN EL TRASTE 5 POR QUE SE QUEDAN EN Cmaj7/A
    LAS ESTROFAS VAN IGUAL CON ESE MISMO TAB
    
    E    D/E   Cmaj/E Bm Cmaj7
    EL BRILLO DE TU ROSTRO
    Em/A    D/A Cmaj7/A Bm Cmaj7
    ALUMBRA MI OSCURIDAD
    E     D/E  Cmaj7/E  Bm Cmaj7
    TE ACUERDAS QUE SOY POLVO
          Em/A   D/A     Cmaj7/A Bm Cmaj7
    Y ME VUELVES A INSPIRAR
    
  • +
    ¡Colabora con nosotros!
    Envíanos tu versión de esta canción

Letra de Arde en mí
El brillo de Tu rostro
Alumbra mi oscuridad
Te acuerdas que soy polvo
Y me vuelves a inspirar
Me acerco ante el trono en mi debilidad
Eres fuerte, Eres fuerte
Tu viento sopla
Como un estruendo
Aviva hoy el fuego
Avívame Señor
Tu fuego quema
Arde en mi espíritu
Radiante
Estoy tan listo estoy dispuesto mi Jesús
Mi corazón te ofrezco, nadie es como Tú
Me acerco ante el trono en mi debilidad
Eres fuerte, Eres fuerte
Tu viento sopla
Como un estruendo
Aviva hoy el fuego
Avívame Señor
Tu fuego quema
Arde en mi espíritu
Radiante
//Arde en mi señor
Arde en mi señor//
Tu viento sopla...




[Arde en mí chords][Arde en mí cifra]
© LaCuerda.net · aviso legal · privacidad · es · en · pt · contacto
DINAMICO