Acordes de Guitarra » M »Marco Barrientos » Anhelo tu presencia (Tab)

Anhelo tu presencia
Marco Barrientos

Letras, Acordes y Tabs para Guitarra, Bajo y Ukulele

  • Introducción: Fm/D#/G#/C#
    
    G#                    Fm
    Cuando llames quiero responder
    C#                   D#
    Cuando hables quiero escuchar
     G#                   Fm      C#
    Cuando escuches te quiero adorar
            D#
    Mi riqueza eres tu
    G#                   Fm
    En tus brazos quiero descansar
    C#                  D#
    Tus palabras quiero yo beber
    G#              Fm         C#
    Mi cuerpo tu habitación será
                    Cm
    Mi porción esta en ti
    
    
    
  • Intro: Fm/D#/G#/C#
    
    G#                    Fm
    Cuando llames quiero responder
    C#                   D#
    Cuando hables quiero escuchar
    G#                     Fm        C#
    Cuando escuches te quiero adorar
            D#
    Mi riqueza eres tu.
    
    G#                   Fm
    En tus brazos quiero descansar
    C#                  D#
    Tus palabras quiero yo beber
    G#              Fm         C#
    Mi cuerpo tu habitación será
                   C
    Mi porción esta en ti
    
    
  • Hola Gente, aqui les presento el intermedio de guitarra de esta
    bella ministracion, espero les sirva:
    
    
    e--------------------------------------------------------------
    b--9-9--9s11-11---11s13-13s14-14-14-13-13--11-11-9-9-----------
    G--------------------------------------------------------------
    D--------------------------------------------------------------
    A--------------------------------------------------------------
    E--------------------------------------------------------------
    
    e--------------------------------------------------------------
    b-----9--9-11-11s13-13-11v----9-8-8-------------8-8-9--11------
    G--8--------------------------------8-8--8-8s10----------------
    D--------------------------------------------------------------
    A--------------------------------------------------------------
    E--------------------------------------------------------------
    
    e--------------------------------------------------------------
    b--11-9-9-8-9a--9-9-8-8-----------------9-8------------------
    
  • INTRO: Fm D# G# C#
    
    Entonces harían el C# así:    e|1     Y el D# así: e|3
                                  B|2                  B|4
                                  G|1                  G|3
                                  D|3                  D|-
                                  A|4                  A|-
                                  E|-                  E|-
    Lo demás de la acústica son sólo acordes.
    
    
    LA GUITARRA ELÉCTRICA entra en el segundo coro (min. 2:19) con un punteo:
    
    e|------------|--------|---------|---------|--------|------|-------|-------|
    B|-6~~-6-8----|-----6--|---8-----|-----8---|-----9--|-8----|-------|-------|
    G|------------|-3/5----|-3-------|-(8)---9-|-3/5----|---8--|-------|---6---|
    D|------------|--------|---------|---------|--------|------|---6---|---6---|
    A|------------|--------|---------|---------|--------|------|---6---|---4---|
    E|------------|--------|---------|---------|--------|------|---4---|-------|
    
    
  • +
    ¡Colabora con nosotros!
    Envíanos tu versión de esta canción

Letra de Anhelo tu presencia
Cuando llames quiero responder
Cuando hables quiero escuchar
Cuando escuches te quiero adorar
Mi riqueza eres tu
En tus brazos quiero descansar
Tus palabras quiero yo beber
Mi cuerpo tu habitación será
Mi porción esta en ti
Jesús quiero ver tu gloria sobre mí caer
Mi alma anhela tu presencia
Espíritu de Dios Ven sobre mí
Bueno, ia les envie esta kancion que
mas me pedian pos es una grandioza kancion
se ke Dios nos ba a llenar de su precensia!!
ESPIRITU DE DIOS... VEN SOBRE MI.--!!!!
JESUS... TE ANHELO... TE DESEO... TE AMO
ESta es una super kancion
se sea de bendicion para ustedes asi kom
a impaktado mi vida...
ai tan los tonos korrectos.. benciiones
estos tonos si son los correctos
CRISTO VIVE!!




[Anhelo tu presencia chords][Anhelo tu presencia cifra]
© LaCuerda.net · aviso legal · privacidad · es · en · pt · contacto