Acordes de Guitarra » M »Marco Barrientos » Amor sin condición (Tab)

Amor sin condición
Marco Barrientos

Letras, Notas, Punteos, Tablaturas y Acordes de Guitarra (Tabs & Chords)

  • Letra y Acordes
    INTRO: G-Am-Bm-C-CC
    
       G                       D
    detal manera al mundo tu amaste
                            Em
    que hasta tu vida entregaste
           C             D
    tu costado abierto fue
    
        G                      D
    y fueron esas gotas de tu sangre
                       Em
    que mi corazon limpiaron
          C              D
    me hiciste un nuevo ser
    
      G              D
    gracias te doy gracias
             Em            C           D
    por tu amor sin condicion en esa cruz
    
  • Letra y Acordes
    ---Intro---
    
    Em7(9)
    e--------------------------------------
    B--------------------------------------
    D--------------------------------------
    A---5-----7-----10------10-10----------
    E-3---3-5---5-7----7-8---8-8-----------
    
    G Am7 G/B C x4
    
        G                       D
    De tal manera al Mundo tu amaste,
                            Em            C           D
    que hasta tu vida entregaste, tu costado abierto fue.
        G                        D
    Y fueron esas gotas de tu sangre,
                         Em            C              D
    que mi corazón limpiaron, me hiciste un nuevo ser.
    
    
  • Tablatura
    G/---------------------/
    D/---------------------/x16
    A/-5h7-7---------------/
    E/---------------------/
    Bajo y Guitarra
    G/---------------------/
    D/---------------------/x4
    A/-7-7-7-5-7-----------/
    E/---------------------/
    
    Intro: G Am7 Bm/G C      x3   x4
    G/-------------------------/----/
    D/-------------------------/----/
    A/---5--------------10-10--/-10-/
    E/-3---3-5-7-5-7-8--8--8---/-8--/
    
    Verso:
       G                         D
    De tal manera al mundo tu amaste
                           Em
    
  • Tablatura
    E------------------------------------
    B------------------------------------
    G------------------------------------
    D------------------------------------
    A---5-7-7-5-7------------------------ X4
    E------------------------------------
    
    
    E--------------------------------
    B--------------------------------
    G--------------------------------
    D--------------------------------
    A---5---7---9---10--/--10--10----X4
    E---3---5---7---8---/--8----8----
    
    
      RIFF
    
       Del tal manera al mundo tu amaste ...
    E-----------------------
    
  • Tablatura
    A||--5h7-5h7--|| x16
    E||-----------||
    
    Guitar:
    A||--5h7-5h7v-s4--|| x3   A||--5h7-5h7v-s15s7--|| x1
    E||---------------||      E||------------------||
    
    D||------5-----7-----9-----------||      D||------5-----7-----9----||
    A||----5-----7-----9------10-10--|| x3   A||----5-----7-----9------|| x1
    E||--3-----5-----7-----8---8-8---||      E||--3-----5-----7-----8--||
    
    Verso:
        G                       D
    De tal manera al mundo Tu amaste,
                            Em            C           D
    que hasta Tu vida entregaste, Tu costado abierto fue.
        G                        D
    Y fueron esas gotas de Tu sangre,
                         Em            C              D
    que mi corazón limpiaron, me hiciste un nuevo ser.
    
  • Tablatura
     E--------------------------------|
     B--------------------------------|
     G--------------------------------|
     D--------------5-----------------|
     A--5--7--5--7-----7--5v----5--7--|
     E------------------------7-------|
    
     E-----------------------------|
     B-----------------------------|
     G-----------------------------|
     D-----------5-----------------|
     A--7--5--7----7v--5-----5--7--|
     E--------------------7--------|
    
     E--------------------------------|
     B--------------------------------|
     G--------------------------------|
     D-----------5h7--5---------------|
     A--7--5--7----------5v-----5--7--|
     E-----------------------7--------|
    
  • Tablatura
    ----------------------------------------------------------------------
     Hola les dejo esta tablatura de esta hermosa
     Alabanza Es de la versión Auditorio Nacional
    
     Intro.
    
     1 Parte (Guitarra y Bajo) esta frase se repite 4 veses
     E------------------------------------|
     B------------------------------------|
     G------------------------------------|
     D------------------------------------|
     A----7---5h7--------7---5v----5h7----|
     E-00---0------0-5-0---0-----7--------|
       ..   .      .   .   .
    
    
     2 Parte. se repite 4 veses
     Guitarra
     E-------------------------|
     B-------------------------|
    
  • Tab p/Bajo
    buenas, les voy a enseñar este tema que parece complicado,pero
    no lo es es solo practica
    
    Intro:
    G|-----------------------------------
    D|-----------------------------------
    A|---5-3---7-5---9-7-------3-3------- X4
    E|--3----5-----7-----8---------------
    
    Verso: De tal manera.....
    G|---------------------------------------
    D|---------------------------------------
    A|---------5(10)-7(5)-3(10)-5(18)--------
    E|---3(10)-------------------------------
    
    0:26 (ESTO ES UN ARREGLO MIO Y SE TIENE QE HACER MUY RAPIDO)
    G|-------7-5------------------------
    D|---7-5-----7-5-7------------------
    A|----------------------------------
    E|----------------------------------
    
    Verso 2: Y fueron esas gotas de tu....
    G|---------------------------------------
    D|---------------------------------------
    A|---------5(10)-7(5)-3(10)-5(18)--------
    E|---3(10)-------------------------------
    
    Interlude: Gracias Gracias.....
    G|-----------------------------------------------
    D|-----------------------------------------------
    A
  • +
    ¡Colabora con nosotros!
    Envíanos tu versión de esta canción

Letra de Amor sin condición
detal manera al mundo tu amaste
que hasta tu vida entregaste
tu costado abierto fue
y fueron esas gotas de tu sangre
que mi corazon limpiaron
me hiciste un nuevo ser
gracias te doy gracias
por tu amor sin condicion en esa cruz
gracias te doy gracias
por tu perdon la salvacion en esa cruz
amor sin condicion
amor sin condicion.



© LaCuerda.net · Aviso Legal · Privacidad