Tablatura de Marcela Gandara: Vine a adorarte
Marcela Gandara  corregir
desconocido
Estrofa:

e|-2--2-3-0--0-2-3--3-2-0---|-2--2-3-0-0-0-2---|
B|------------------------3-|----------------3-|

e|-2--2-3-0--0-2-3--3-2-0---|---0-2--2-3-0-0-0-2---|
B|------------------------3-|-3------------------3-|




Estribillo:

e|-3-2-2-0-2-2---3-2-2-0-0-0---3-2-2-0-2-2-2-5---|
                                                   X2
B|---------------------------------------------3-|




Estrofa:

e|-2--2-3-0--0-2-3--3-2-0---|-2--2-3-0-0-0-2---|
B|------------------------3-|----------------3-|

e|-2--2-3-0--0-2-3--3-2-0---|---0-2--2-3-0-0-0-2---|
B|------------------------3-|-3------------------3-|
Este fichero es trabajo propio de su transcriptor y representa su interpretación personal de la canción. El material contenido en esta página es
para exclusivo uso privado, por lo que se prohibe su reproducción o retransmisión, así como su uso para fines comerciales.
© LaCuerda.net · aviso legal · privacidad · es · en · pt · contacto