Acordes de Guitarra » M »Marcela Gandara » Un viaje largo (Tab)

Un viaje largo
Marcela Gandara

Letras, Acordes y Tabs para Guitarra, Bajo y Ukulele

  • G                                      C
    Ha sido largo el viaje pero al fin llegué
    G                                   C
    La luz llegó a mis ojos aunque lo dudé
    Bm                             Em              D
    Fueron muchos valles de inseguridad los que crucé
    Bm                            Em
    Fueron muchos días de tanto dudar
                   D                  C     D
    Pero al fin llegué, llegué a entender
    
                  G
    Que para esta hora he llegado
                D                   Em                  C
    Para este tiempo nací en sus propósitos eternos yo me vi.
              G
    Para esta hora he llegado,
                     D                    Em
    aunque me ha costado creer entre sus planes para hoy me
       C
    
  • e--3-5-7-3-----7-8-10-5------3-2-0------3-2------------
    b--5-5-7-5-----7-8-10-7------5-3-1-------------3-1-3---
    g-------------------------------------------------------
    d-------------------------------------------------------
    a-------------------------------------------------------
    E-------------------------------------------------------
    Estrofa:
    e------------------------------------0--0-2-3-------3------
    b------------------------------------1--1-1-1-------0------
    g------------------------------------0-----------0--0------
    d------------------------------------2--------------0------
    a------------------------------------3--3-3-3-------2------
    E------------------------------------X--------------3------
         G                               C              G
    Ha sido largo el viaje pero al fin llegue       la luz llego a
    
    e-------------------0-0-2-3-------2---------------------
    b-------------------1-1-1-1-------3---------------------
    g-------------------0----------0--2---------------------
    d-------------------2-------------0---------------------
    
  • +
    ¡Colabora con nosotros!
    Envíanos tu versión de esta canción
  • Tutorial
    Un viaje largo Marcela Gandara tutorial con guitarra, explicacion acordes y ritmo
    11:20
  • Tutorial
    Como tocar el intro de Un viaje Largo por Leo Sosa(parte 1)
    0:31
  • Tutorial
    Un Viaje Largo - Marcela Gandara - Tutorial & Cover
    3:30
  • Tutorial
    HD
    un viaje largo tutorial con guitarra acústica
    7:03
  • Tutorial
    un viaje largo tutorial con guitarra acustica
    7:10

Letra de Un viaje largo
Ha sido largo el viaje pero al fin llegué
La luz llegó a mis ojos aunque lo dudé
Fueron muchos valles de inseguridad los que crucé
Fueron muchos días de tanto dudar
Pero al fin llegué, llegué a entender
Que para esta hora he llegado
Para este tiempo nací en sus propósitos eternos yo me vi.
Para esta hora he llegado,
aunque me ha costado creer entre sus planes para hoy me
encontré.
Y nunca imagine que dentro de su amor
y dentro de sus planes me encontrara yo
Fueron muchas veces que la timidez me lo impidió
Fueron muchos días de tanto dudar
Pero al fin llegué, llegué a entender
Cualquier Duda, aqui esta mi Twitter @DanielSosa88
Correo : danieljvmb@gmail.com




[Un viaje largo chords][Un viaje largo cifra]
© LaCuerda.net · aviso legal · privacidad · es · en · pt · contacto