Tablatura para Bajo de Marcela Gandara: Vine a adorarte
Conexión · Inscripción
Letras y Acordes
Pantalla Completa
Imprimir
Versión Texto
Añadir Favorito
Otras Versiones

Mostrar Diagramas
Desfile Automático
Formato del Texto


Vine a adorarte(BAJ)

Marcela Gandara

calidad:
mgnd0023
AUTOR: Marcela Gandara  corregir
ALBUM: desconocido
Enviado por Franklyn
Se hace el intro, la estrofa y un coro y ahi si entra el bajo:
        Tú eres...
E|-----------------5----------0--------3----
A|--7-7s5-5---------------------------------
D|------------------------------------------
G|------------------------------------------
   Glorioso...
E|-----------------5-------3-------3-
A|-----5-----------------------------
D|-----------------------------------
G|-----------------------------------
      El mundo...
E|-----------------5----------0--------3----
A|--------5---------------------------------
D|------------------------------------------
G|------------------------------------------
   Y pobre...
E|-----------------5-------3-------3-
A|-----5-----------------------------
D|-----------------------------------
G|-----------------------------------
           Vine adorarte, vine a postrarme
E|--3-------------------------------5-----
A|-----------------5------55--------------
D|----------------------------------------
G|----------------------------------------
   vine a decir que eres mi Dios
E|-55-------7-------77------3------
A|---------------------------------
D|---------------------------------
G|---------------------------------
   Solo tú eres grande, solo tú eres digno
E|-33--------------------------------5----
A|---------------5------55----------------
D|----------------------------------------
G|----------------------------------------
   eres asombroso para mi
E|-55-------7------77---3---
A|--------------------------
D|--------------------------
G|--------------------------
           Vine adorarte, vine a postrarme
E|--3-------------------------------5-----
A|-----------------5------55--------------
D|----------------------------------------
G|----------------------------------------
   vine a decir que eres mi Dios
E|-55-------7-------77------3------
A|---------------------------------
D|---------------------------------
G|---------------------------------
   Solo tú eres grande, solo tú eres digno
E|-33--------------------------------5----
A|---------------5------55----------------
D|----------------------------------------
G|----------------------------------------
   eres asombroso para mi
E|-55-------7------77---3---
A|--------------------------
D|--------------------------
G|--------------------------
  Nunca sabre cuanto costo... (sin bajo X1)
  (entra el bajo y los demás instrumentos)
  Nunca sabre... sobre esa cruz
E|--------------------------------
A|---------------------5-5-5-5-5-5
D|--------------------------------
G|--------------------------------
  Nunca  sabre cuanto costo   ver
E|----------7-7-7-7-3-3-3---------
A|5-5-5-5-5--------------5-5-5-5-5
D|--------------------------------
G|--------------------------------
   mi   maldad  sobre esa cruz
E|-5-5-5-5-7-7-7-7-3-3-3-3--------
A|-------------------------5-5-5-5
D|--------------------------------
G|--------------------------------
  Nunca  sabre cuanto costo   ver
E|----------7-7-7-7-3-3-3---------
A|5-5-5-5-5--------------5-5-5-5-5
D|--------------------------------
G|--------------------------------
   mi   maldad  sobre esa cruz
E|-5-5-5-5-7-7-7-7-3-3-3-3--------
A|-------------------------5-5-5-5
D|--------------------------------
G|--------------------------------

va la primera parte del coro con
guitarra acustica (vine adorarte...)
y luego entra el bajo asi:

  Solo tú eres grande, solo tú eres digno
E|-----------15---------------------17---
A|-------------17-----------------17-----
D|---------------------------------------
G|---------------------------------------
  eres asombroso para mi
E|----------5-7--------3---
A|-------------------------
D|-------------------------
G|-------------------------
               Vine adorarte, vine a postrarme,
E|------3-3-3-3-3-3-3-3------------------5-5-5-5
A|----------------------5-5-5-555-5-5-5-5-------
D|----------------------------------------------
G|----------------------------------------------
  vine a decir que eres mi Dios
E|-555-5-5-7-7-7-7-777-7-7-3-3-----
A|---------------------------------
D|---------------------------------
G|---------------------------------
              Solo tú eres grande, solo tú eres  digno,
E|------------333-3-3-3-3-3-3--------------------5-5-5-5-
A|---------------------------5-5-5-555-5-5-5-5-5---------
D|-------------------------------------------------------
G|-------------------------------------------------------
  eres asombroso para mi
E|555-5-5-5-7-7-7-777-3-3-
A|------------------------
D|------------------------
G|------------------------

E|------33------------------------------55
A|---------------------55-----555---------
D|----------------------------------------
G|----------------------------------------

E|------555------77------777-----33-----
A|--------------------------------------
D|--------------------------------------
G|--------------------------------------

E|------------333-----------------------
A|--------------------------55-----555--
D|--------------------------------------
G|--------------------------------------

E|--------55-----555------77-----777--33--
A|----------------------------------------
D|----------------------------------------
G|----------------------------------------

y luego la canción termina solo con guitarra acustica
Este fichero es trabajo propio de su transcriptor y representa su interpretación personal de la canción. El material contenido en esta página es
para exclusivo uso privado, por lo que se prohibe su reproducción o retransmisión, así como su uso para fines comerciales.

© LaCuerda.net · Aviso Legal · Privacidad