Acordes de Guitarra » M »Mar de Java » Un Animal (Tab)

Un Animal
Mar de Java

Letras, Acordes y Tabs para Guitarra, Bajo y Ukulele

  • ------------------------------------
    ------------------------------------
    -----4---------4---------------4----
    ---6---6-----4--------6------4---4--
    -6---------4--------7---7--4--------
    ------------------0-----------------
    G#m        F#sus  E        F#sus
    
    
    ----------------------------------
    --------------------------5-------
    -----4---------4--------4---------
    ---6---6-----4--------6-----------
    -6---------4--------7-------------
    ------------------0---------------
    G#m        F#sus  E
    
    
    --------------------------------
    --------------------------------
    
  • +
    ¡Colabora con nosotros!
    Envíanos tu versión de esta canción

Letra de Un Animal
Soy un animal acorralado
Soy un animal desenfrenado...
Cruzaste la delgada linea q hay entre mi y el mal
Cruzaste la delgada linea q hay entre el sol y el mar...
Por instinto te devoraria hasta el final
Por instinto de devoraria
Soy un animal acorralado en la selva
Soy un animal desenfrenado entre rejas...
Dando vueltas infinitas calmo mi ansiedad
Procesan en mi remolinos internos y resignacion...
Soy un animal acorralado en la selva
Soy un animal desenfrenado entre rejas...
Por instinto te devoraria hasta el final
Por instinto de devoraria
Soy un animal acorralado en la selva
Soy un animal desenfrenado entre rejas...

Video de Un Animal
[]




[Un Animal chords][Un Animal cifra]
© LaCuerda.net · aviso legal · privacidad · es · en · pt · contacto