Acordes de Guitarra » M »Mar de Java » Todo mi mar (Tab)

Todo mi mar
Mar de Java

Letras, Acordes y Tabs para Guitarra, Bajo y Ukulele

  •     Bb5      C#5      C5     F5              |
    1:------------------------------------------ |
    2:------------------------------------------ |
    3:--3--3---6--6--6---5--5---10--10---------- |
    4:--3--3---6--6--6---5--5---10--10---------- |
    5:--1--1---4--4--4---3--3---8---8----------- |
    6:------------------------------------------ |
                                                 |
                                                -| X3
        Bb5      C#5      C5                     |
    1:------------------------------------------ |
    2:------------------------------------------ |
    3:--3--3---6--6--6---5--()------------------ |
    4:--3--3---6--6--6---5--()------------------ |
    5:--1--1---4--4--4---3--()------------------ |
    6:------------------------------------------ |
                                                  -
    
        Bb5      C#5      C5     F5
    1:------------------------------------------
    
  • +
    ¡Colabora con nosotros!
    Envíanos tu versión de esta canción

Letra de Todo mi mar
|
-| X3
-
El cielo azul desaparece
En segundos como un rayo.
La sombra del viento aúlla
Eterna por su amada
Las estrellas brillan mucho más,
Hacia un aquelarre van.No van a dejar
Que el frio cobije,
cobije su soledad.
Sos todo mi sol
Sos todo mi mar
Sos todo mi mal.
ACLARACIÓN: Advierto que CREO que a la hora de
tocarse en vivo en el Live Session en la Sala,
se han transportado los acordes medio tono abajo
quedando de la siguiente manera:
VERSOS: (A5 - F)
ESTRIBILLO: (A5 - F - D#)

Video de Todo mi mar
[]




[Todo mi mar chords][Todo mi mar cifra]
© LaCuerda.net · aviso legal · privacidad · es · en · pt · contacto