Acordes de Guitarra » M »La Máquina de hacer pajaros » Hipercandombe (Tab)
  • Letra y Acordes
    Dm
    Cuando la noche te hace desconfiar
    Bb/D
    Yendo por el lado del rio
    A/D
    La paranoia es quizas nuestro peor enemigo.
    
    Cubris tu cara y tu pelo también
    Como si tuvieras frío,
    Pero en realidad
    Te queres escapar de algún lío
    
    Dm
    Dejenme en paz,
               G
    No quiero más]
                Bb       A      Dm
    No hay esperanzas en la ciudad,
    Mi amada está lejos de acá,
    En un país hipernatural
    
  • Tablatura
    E|------------------------------
    A|---3-4-5---5-----5-----3-4-5--
    D|---------3---5h3---3-5--------
    G|------------------------------
    B|------------------------------
    E|------------------------------
    
    Riff 2:
    
    E|----------------------
    A|----------------------
    D|----------------------
    G|----------------------
    B|---8-10-11------------
    E|-------------9-10-12--
    
    Riff 3:
    
    E|------------------------------------------------------------
    A|------------------------------------------------------------
    
  • Tab p/Bajo
    Tempo = 144
    Arranca en 0:11, despues del riff del teclado
    
    G |-------|-------||---------------|----------------|
    D |-------|-------||o--------------|----------------|
    A |-------|-------||o5--4--3--2----|--1--0----------|
    E |--3----|--5----||---------------|--------4--3----|
    
    
    ------------------5-|-5s7--------------------|
    --3-----7s9--0------|-------7-----0---0/12/0-|
    --------------------|------------------------|
    --------------------|------------------------|
    
    ---------------------7s9--7-|
    ----------------7s----------|x3
    --5----x--5-----------------|
    ----------------------------|
    
    ------------8-------8-----|------------9-------9-----| En la segunda vuelta
    -------8---------8-----8--|-------9---------9-----9--| en Mi bajo una octava
    --6-----------------------|--7-----------------------|
    --------------------------|--------------------------|
    
    ----------------------------|-----------------------------||
    -------------5-------5------|-------------7-------7------o||
    -------5----------5-----5
  • +
    ¡Colabora con nosotros!
    Envíanos tu versión de esta canción

Letra de Hipercandombe
Cuando la noche te hace desconfiar
Bb/D
Yendo por el lado del rio
La paranoia es quizas nuestro peor enemigo.
Cubris tu cara y tu pelo también
Como si tuvieras frío,
Pero en realidad
Te queres escapar de algún lío
Dejenme en paz,
No quiero más]
No hay esperanzas en la ciudad,
Mi amada está lejos de acá,
En un país hipernatural
Cuando las lluvias de gas y alquitrán
Cubran tu cuerpo podrido,
Toda tu caretez
Mi amigo no tendrá más sentido,
Y si te asusta este canto final,
O te parece aburrido,
Podés cambiar el dial
Y escuchar algo más divertido.
Estribillo:



© LaCuerda.net · aviso legal · privacidad · contacto