Acordes de Guitarra » M »Manuel Medrano » Bajo el agua (Tab)

Bajo el agua
Manuel Medrano

Letras, Acordes y Tabs para Guitarra, Bajo y Ukulele

  • Acordes:   E A D G B E
    -------------------------
    C#m7 :     0 4 6 4 5 4
    bajoA:     0 0 6 0 0 0
    E    :     0 2 2 1 0 0
    B    :     7 9 9 8 7 7
    ------------------------
    Intro
    C#m7  bajoA  E  B (x2)
    
        C#m7        A        E      B     C#m7       A       E    B
    e |---------------------------------------------------------------|
    B |-----5-------------------------------5-------------------------|
    G |-------------0-------1-------8---------------0-------1------8--|
    D |---6-------6-----------------------6-------6-------------------|
    A |-4-------0---------2-------9-----4-------0---------2------9----|
    E |-----------------0-------7-----------------------0------7------|
    
    
    C#m7               bajoA    E             B
    
  • Acordes:   E A D G B E
    -------------------------
    C#m7 :     0 4 6 4 5 4
    C#m7*:     0 0 6 4 5 0
    E    :     0 2 2 1 0 0
    B    :     0 2 3 3 3 2
    
    -------------------------
    Intro
    C#m7  C#m7*  E  B (x2)
    
        C#m7    C#m7*     E      B     C#m7    C#m7*   E    B
    e |---------------------------------------------------------------|
    B |-----5-----------------------4-------5-----------------------4-|
    G |-------------4-------1-----------------------4-------1---------|
    D |---6-------6-------2-------4-------6-------6-------2-------4---|
    A |-4-------0---------------2-------4-------0---------------2-----|
    E |-----------------0-------------------------------0-------------|
    
    
    
  • Amaj7 se toca:
    
    "D-2" y "G-1". La cuerda de B se toca al aire.
    
    
    
    INTRO (Arpegeo):
    
    
    
        C#m7    Amaj7   E       B       C#m7    Amaj7   E       B
    e |---------------------------------------------------------------|
    B |-----5-------0---------------4-------5-------0---------------4-|
    G |-----------1---------1---------------------1---------1---------|
    D |---6---------------2-------4-------6---------------2-------4---|
    A |-4-------0---------------2-------4-------0---------------2-----|
    E |-----------------0-------------------------------0-------------|
    
    
        C#m7                 Amaj7 E                B
    
  • C#m  C#m7/A  E   B   A
    
    e|0|  |0|   |0| |0| |0|
    B|5|  |5|   |0| |0| |0|
    G|6|  |4|   |1| |8| |6|
    D|6|  |6|   |2| |8| |7|
    A|4|  |0|   |2| |9| |7|
    B|x|  |x|   |0| |7| |5|
    
    Intro:
    
    E||----------------|----------------|----------------|---------------0--------|
    B||--------5-------|----------------|----------------|------------------------|
    G||----------------|--------4-------|--------1-------|--------8---------8-----|
    D||-----6----------|-----6----------|----------------|---------------------9--|
    A||--4-------------|--0-------------|-----2----------|-----9------------------|
    E||----------------|----------------|--0-------------|--7---------------------|
    
    Verso 1:
    
    
  • +
    ¡Colabora con nosotros!
    Envíanos tu versión de esta canción

Letra de Bajo el agua
Quiero volar contigo, muy alto en algún lugar
quisiera estar contigo viendo las estrellas sobre el mar
quiero encontrar otro camino ponerme mi vestido
y salir a caminar contigo
quiero decirle al mundo que no somos amigos
decirle a la tristeza
que no se cruce en mi camino...
Quiero volar contigo, muy alto en algún lugar
quisiera estar contigo viendo las estrellas sobre el mar
quiero encontrar otro camino ponerme mi vestido
y salir a caminar contigo
quiero decirle al mundo que no somos amigos
decirle a la tristeza
que no se cruce en mi camino...
Hoy por que voy
con toda la fuerza de un submarino
a conquistar a esa dama que tanto juega conmigo
voy por el mundo solo y sin amigos
voy dando tantas vueltas sin ningún sentido
pero tu ayer cambiaste mi destino
me diste vida mucha mas vida que le vino
me diste fuerza en los días fríos
me diste ganas de extrañarte sin ningún motivo
Quiero encontrar otro camino ponerme mi vestido
y salir a caminar contigo
quiero decirle al mundo que no somos amigos
decirle a la tristeza se que
que no se cruce en tu camino
que no se cruce no
bajoA
que no se
que no se cruce no....
que no se
que no se cruce no...




[Bajo el agua chords][Bajo el agua cifra]
© LaCuerda.net · aviso legal · privacidad · es · en · pt · contacto