Acordes de Guitarra » M »Los Manseros Santiagueños » Eterno Amor (Tab)

Eterno Amor
Los Manseros Santiagueños

Letras, Acordes y Tabs para Guitarra, Bajo y Ukulele

  • Intro: A - D - A - E -
           D - A - E - D - A
    
    A                   E
    Despierta ya mujer asi yo puedo ver
    F#m                       C#m
    la mirada de tu alma tan profunda
    D                        A
    que me hace tanto bien y sueño
    B   (o B7)                       E
    que entre tus brazos tu boca me diga te quiero
    D - E - A
    Oohhh
    
    siente mi corazon y el fuego de su amor
    no lo dejes asi muerto de frio
    tu mirada es todo mi abrigo
    tiene la gracia de hacerme que me sienta vivo
    Oohhh
    
    
  • e|-----5--4-------------5--4-----------------------------------|
    B|---5------5--7------5------5--7---5-5-5-7--5---3-3--2-3--5---|
    G|-------------------------------------------------------------|
    D|-------------------------------------------------------------|
    A|-------------------------------------------------------------|
    E|-------------------------------------------------------------|
    
    
    e|-----5--4-------------5--4-----------------------------------|
    B|---5------5--7------5------5--7---5-5-5-7--5---3-3--2-3--5---|
    G|-------------------------------------------------------------|
    D|-------------------------------------------------------------|
    A|-------------------------------------------------------------|
    E|-------------------------------------------------------------|
    
    
    e|-------------------0---5-------------------------------------|
    B|-----3-3---------2-------------------------------------------|
    G|---------2--4--2---------------------------------------------|
    D|-------------------------------------------------------------|
    
  • INTRO: (A - D - A - E - D - A - E - D - A)
    
    
    TABe|----5-4-0-2----5-4-0-2---0-0-0-2-0----------0-----------------|
    TABB|--5----------5----------------------3-3-2-3-------------------|
    TABG|--------------------------------------------------------------|
    TABD|--------------------------------------------------------------|
    TABA|--------------------------------------------------------------|
    TABE|--------------------------------------------------------------|
    
    
    TABe|----5-4-0-2----5-4-0-2---0-0-0-2-0----------0-------------0-5-|
    TABB|--5----------5----------------------3-3-2-3----3-3-2-0--2-----|
    TABG|-------------------------------------------------------2------|
    TABD|--------------------------------------------------------------|
    TABA|--------------------------------------------------------------|
    TABE|--------------------------------------------------------------|
    
    
    
    
  • +
    ¡Colabora con nosotros!
    Envíanos tu versión de esta canción

Letra de Eterno Amor
Despierta ya mujer asi yo puedo ver
la mirada de tu alma tan profunda
que me hace tanto bien y sueño
que entre tus brazos tu boca me diga te quiero
Oohhh
siente mi corazon y el fuego de su amor
no lo dejes asi muerto de frio
tu mirada es todo mi abrigo
tiene la gracia de hacerme que me sienta vivo
Oohhh
SI SUPIERAS DE VERDAD QUE TU ERES MI ETERNO AMOR
Y QUE TODA ESTA DISTANCIA ME MARCHITA COMO UNA FLOR
SI SUPIERAS DE VERDAD CUANTO ES QUE TE QUIERO YO
Y QUE TODA ESTA DISTANCIA SE ME AHONDA EL CORAZON
Despierta ya mujer asi yo puedo ver
la mirada de tu alma tan profunda
que me hace tanto bien y sueño
que entre tus brazos tu boca me diga te quiero
siente mi corazon y el fuego de su amor
no lo dejes asi muerto de frio
tu mirada es todo mi abrigo
tiene la gracia de hacerme que me sienta vivo
espero les sirva a todos saludos a tami,sebi y cari mi familia que los amor!!!
cualquier cosa les dejo mi mail
rodrigolopeztejerina@gmail.com




[Eterno Amor chords][Eterno Amor cifra]
© LaCuerda.net · aviso legal · privacidad · es · en · pt · contacto