Acordes de Guitarra » M »Mandrácula » Verde claro (Tab)

Verde claro
Mandrácula

Letras, Acordes y Tabs para Guitarra, Bajo y Ukulele

  • intro:
    
    e|----------------------------------------------------------------------------------------------|
    B|----------------------------------------------------------------------------------------------|
    G|----------------------------------------------------------------------------------------------|
    D|-------2------------2-------------------------------------------------------------------------|
    A|-4-2-4-0-4-2--4-2-4-0-4-2--7-6-7--7-6--7-6-7--7-6-2-------------------------------------------|
    E|-2-0-2---2-0--2-0-2---2-0--5-4-5--5-4--5-4-5--5-4-0-------------------------------------------|
     
    e|----------------------------------------------------------------------------------------------|
    B|----------------------------------------------------------------------------------------------|
    G|----------------------------------------------------------------------------------------------|
    D|-------2------------2-------------------------------------------------------------------------
  • +
    ¡Colabora con nosotros!
    Envíanos tu versión de esta canción



Video de Verde claro
[]




[Verde claro chords][Verde claro cifra]
© LaCuerda.net · aviso legal · privacidad · es · en · pt · contacto