Acordes de Guitarra » M »La Mancha de Rolando » El cubanito (Tab)

El cubanito
La Mancha de Rolando

Letras, Acordes y Tabs para Guitarra, Bajo y Ukulele

  • LA otra Guitarra:                 C5 C5             C5 C5             D5 D5
    |--7--------7-----------------------------------------------------------------------7------|
    |----8--------8-----------------------------------------------------------------------8----|
    |------7--------7---------------------------------------------------------------6-6-----7--|
    |------------------------------------------------------------------------------------------|
    |-------------------------7-7-7----------10-9-7-9----------10-9-7-9------------------------|
    |-------------------------5-5-5------------------------------------------------------------|
    
               C5 C5             C5 C5             D5 D5
    |-----------------------------------------------------------7------|
    |-------------------------------------------------------------8----|
    |-------------------------------------------------------6-6-----7--|
    |------------------------------------------------------------------|
    |--7-7-7----------10-9-7-9----------10-9-7-9-----------------------|
    |--5-5-5-----------------------------------------------------------|
    
    
    Riff:
    
    |--------8-------------------8---------------------9-------------------9------------|
    
  • +
    ¡Colabora con nosotros!
    Envíanos tu versión de esta canción

Letra de El cubanito
Riff:
Con tu imagen inrompible, con decir pais flexible
siempre hablando de negocios, no te importa de nosotros
tu hogar se desquebraja, ellos que van a pensar??
Nos distes todo en bandeja, comprame un chocolatin
nos distes todo en bandeja, comprame un figurin
nos distes todo en bandeja, comprame un duramil
nos distes todo en bandeja, me mandastes hasta San Martin
RIFF
Tanto tiempo a tu lado, ni se cuando se casaron
te pusistes la careta, ante la palabra agena
Nos distes todo en bandeja, comprame un chocolatin
nos distes todo en bandeja, comprame un figurin
nos distes todo en bandeja, comprame un duramil
nos distes todo en bandeja, me mandastes hasta San Martin
RIFF
Siempre laburando a full, evadiendo tu salud
nunca tuvistes que pensar, cuidas la formalidad
hay mucho que reprochar, pero igual te llevo aca, VIEJO!!!!!
Nos distes todo en bandeja, comprame un chocolatin
nos distes todo en bandeja, comprame un figurin
nos distes todo en bandeja, comprame un duramil
nos distes todo en bandeja, me mandastes hasta San Martin
Nos distes todo en bandeja, comprame un chocolatin
nos distes todo en bandeja, comprame un figurin
nos distes todo en bandeja, comprame un duramil
nos distes todo en bandeja, me mandastes hasta San Martin, hasta la puta que te pario...
Nos distes todo en bandeja, comprame un chocolatin
nos distes todo en bandeja, comprame un figurin
nos distes todo en bandeja, comprame un duramil
nos distes todo en bandeja, me mandastes hasta San Martin




[El cubanito chords][El cubanito cifra]
© LaCuerda.net · aviso legal · privacidad · es · en · pt · contacto
DINAMICO