Acordes de Guitarra » M »La Mancha de Rolando » Capitan Moscato (Tab)

Capitan Moscato
La Mancha de Rolando

Letras, Acordes y Tabs para Guitarra, Bajo y Ukulele

  • |-----------------------------------------------------|
    |-----------------------------------------------------|
    |-----------------------------------------------------|
    |--2-2-2-2-2-2----2-2-2-2-2----2-2-2-2-2-2-----2-2----| X 4
    |--0-0-0-0-3-0----0-0-0-3-0----0-0-0-0-3-0-----0-3-5--|
    |--------------------------------------------------3--|
    
    [A5 D5 - A5 D5] X 4
    
    
    Riff (despues de 'descanza sobre la hierba'):
    
    |-----------------------------------------------|
    |--12/-12h10----10------------------------------|
    |------------12----12---10-----------------12/--|
    |--------------------------12-10----------------|
    |-----------------------------------------------|
    |-----------------------------------------------|
    
    
    
  • +
    ¡Colabora con nosotros!
    Envíanos tu versión de esta canción

Letra de Capitan Moscato
Riff (despues de 'descanza sobre la hierba'):
Capitan de velos alma descanza sobre la hierba,
un marshall de carne cruda te mira
a la cara y tiembla


Capitan fuistes y seras,pues no olvidamos tu historia, el marshall grito sin asco todo
una pasado, todo un futuro, de gloria!




[Capitan Moscato chords][Capitan Moscato cifra]
© LaCuerda.net · aviso legal · privacidad · es · en · pt · contacto
DINAMICO