Tablatura para Guitarra de Maná: Si no te hubieras ido
Conexión · Inscripción
Letras y Acordes
Pantalla Completa
Imprimir
Versión Texto
Añadir Favorito
Otras Versiones

Mostrar Diagramas
Desfile Automático
Manipular Acordes
Formato del Texto


Maná
Si no te hubieras ido(TAB)
calidad:
mana1136
AUTOR: Marco Antonio Solís
ALBUM: Arde el Cielo (2008)
Enviado por Diego
Estos son los arpegios miren abajo para ver donde se tocan.
Ya que son tantos arpegios los que son usados decidi que este
formato seria el mas sencillo de leer

Estoy seguro que mi version de esta cancion es la mejor hasta
ahora, y pueden verme tocarla en youtube aqui para que vean
su validez:

http://www.youtube.com/watch?v=ygWOWfLTxUw

Intro
E|------2-3-3-2-2-0-5-|    E|------2-3-3-2-2-0--|
B|--2/3--3-3---3------|    B|--2/3--3-3---3-----|
G|--------------------|    G|-------------------|
D|--------------------|    D|-------------------|
A|--------------------|    A|-------------------|
E|--------------------|    E|-------------------|

Riff 1                       Riff 2
E|----0----2-0------|    E|----0--2--3-2-0-|
B|---3-3-3----2---0-|    B|---3-3--3-------|
G|--2---2-2----3----|    G|--2---2--2------|
D|-0------------4---|    D|-0--------------|
A|------------------|    A|----------------|
E|------------------|    E|----------------|

Riff 3                      Riff 4
E|----------------|      E|----3-2-0-----2-|
B|---3------2---0-|      B|---3-----3-2--3-|
G|----2------3----|      G|--2-----------2-|
D|-0---0--4---4---|      D|-0--------------|
A|----------------|      A|----------------|
E|----------------|      E|----------------|

Riff 5                       Riff 6
E|---2-0-------|         E----------------------|
B|--3---2---0--|         B--33-55-33-33----2--0-|
G|-2-----3-----|         G--22-22-22-22-2-3-3---|
D|--------4----|         D----------------------|
A|-------------|         A----------------------|
E|-------------|         E----------------------|

Riff 7                              Riff 8
E|-------------33-22-0---|   E----2----0----3--3/5-5|
B|-33-55-33-33-33-33-0-2-|   B-2/3--2/3--2/3--------|
G|-22-22-22-22-22-22-0-2-|   G----------------------|
D|---------------------2-|   D----------------------|
A|-----------------------|   A----------------------|
E|-----------------------|   E----------------------|

Riff 9                                  Riff 10
E|-22-33-22-22-33-22-0---|     E|----0-----33-22-0----|
B|-33-33-33-33-33-33-0-2-|     B|---3-3-3--33-33-0-2--|
G|-22-22-22-22-22-22-0-2-|     G|--2---2-2-22-22-0-2--|
D|---------------------2-|     D|-0----------------2--|
A|-----------------------|     A|---------------------|
E|-----------------------|     E|---------------------|

Riff 11                              Riff 12
E|----3--2---33-22-0---|      E|------------------------|
B|---3-3--3--33-33-0-2-|      B|-33-55-33-33-55-33------|
G|--2---2--2-22-22-0-2-|      G|-22-22-22-22-22-22------|
D|-0-----------------2-|      D|------------------------|
A|---------------------|      A|------------------------|
E|---------------------|      E|------------------------|

Riff 13
E|-------------------------|
B|-------------------------|
G|---0----0----0--2-0-0----|
D|--4-4--4-4--4-4------4-0-|
A|-5----5----5-------------|
E|-------------------------|

Donde tocar los arpegios/riffs:

*: Esto significa que el riff previo termina aqui

Escuchen la cancion mientras tocan para que sepan
exactamente como tocarla



Intro(x2)

                                        (Riff 1)
Te extrano mas que nunca y no se que hacer

                                 (Riff 2)
Despierto y te recuerdo al amanecer

                                  (Riff 3)
Me espera otro dia por vivir sin ti

           *                    (Riff 4)                   *
El espejo no miente, Me veo tan diferente, me haces falta tu


(Riff 5)

                                    (Riff 6)
La gente pasa y pasa siempre tan igual

                                (Riff 7)
El ritmo de la vida me parece mal

                                  (Riff 3)(Riff 8)
Era tan diferente cuando estabas tu

                 *                   (Riff 9)
Si que era diferente cuando estabas tu



Coro

                                      (Riff 10)
No hay nada mas dificil que vivir sin ti(No!)

                                     (Riff 11)
Sufriendo en la espera de verte llegar

                                   (Riff 3)
El frio de mi cuerpo pregunta por ti

                 *(Riff 8)
Y no se donde estas

                   *                (Riff 12)
Si no te hubieras ido seria tan feliz


Intro(x1)

                                    (Riff 1)
La gente pasa y pasa siempre tan igual

                                (Riff 2)
El ritmo de la vida me parece mal

                                   (Riff 3)(Riff 8)
Era tan diferente cuando estabas tu

                 *                  (Riff 9)
Si que era diferente cundo estabas tu


Coro

                                      (Riff 10)
No hay nada mas dificil que vivir sin ti(No!)

                                     (Riff 11)
Sufriendo en la espera de verte llegar

                                   (Riff 3)
El frio de mi cuerpo pregunta por ti

                 *(Riff 8)
Y no se donde estas

                   *                 (Riff 9)
Si no te hubieras ido seria tan feliz



                                       (Riff 11)
No hay nada mas dificil que vivir sin ti(No!)

                                     (Riff 3)
Sufriendo en la espera de verte llegar

                 *(Riff 8)
Y no se donde estas

                   *                 (Riff 13)
Si no te hubieras ido seria tan feliz


Si No te hubieras ido seria tan feliz.


Intro (x1)

Y se termina en el acorde D
Este fichero es trabajo propio de su transcriptor y representa su interpretación personal de la canción. El material contenido en esta página es
para exclusivo uso privado, por lo que se prohibe su reproducción o retransmisión, así como su uso para fines comerciales.
© LaCuerda.net · Aviso Legal · Privacidad