Acordes de Guitarra » M »Malón » El gran pozillo criollo (Tab)

El gran pozillo criollo
Malón

Letras, Acordes y Tabs para Guitarra, Bajo y Ukulele

  • obtenido en	: www.malonweb.com.ar
    
    
    Intro (es arpegiada, esas son las principales notas)
    
    e|----------------------------------------|
    B|----------------------------------------|
    G|----------------------------------------| X4
    D|----3-2----1--1-------------------------| 
    A|--5-----3---------5----3----------------|
    E|--------------------6-----3--5--5-------|
    
    La intro sería algo asi, aunque no estoy seguro.
    
    e|-----------------------------------------------------------------------|
    B|-----------------------------------------------------------------------|
    G|------7------10-----9-----5-----8--------7-----------------------------|
    D|----7-----10------9-----5-----8--------7-------8------10-----5-----7---| X4
    A|--5-----8-------7-----3-----6-----6--5-------8-----10------5-----7-----|
    E|-------------------------------------------6-----8-------3-----5-----5-|
    
    
    Riff 1 (4 veces).
    
    e|---------------------------------------------------------------------|
    B|----------------
  • La afinacion de todo el disco “Justicia o Resistencia” esta en Re,
    un tono mas grave que el anterior disco de Malon.
    O sea la cuerda de arriba (la 4ta) en Re, la 3ra en Sol, la 2da Do y
    la 1ra en Fa. Esta tablatura esta hecha con esa afinacion.
    Espero no complicarlos con “repite parte A, B, etc…”, lo escribo para no
    hacerla tan larga a la tablatura.
    
    
    G|----------------------------------------------------------------  
    D|----------------------------------------------------------------  |
    A|-------------------5-5-5-8-8-8-8-7-7-7-3-3-3-5-5-5-0-0-0-2-2-2-3  |
    E|-0-0-0-3-3-3-2-2-2----------------------------------------------  | Parte
                                                                        |   A
    G|----------------------------------------------------------------  |
    D|----------------------------------------------------------------  |
    A|-------------------5-5-5-8-8-8-8-7-7-7-2-2-2-3-3-3-0-0-0-2-2-2-3  |
    E|-0-0-0-3-3-3-2-2-2----------------------------------------------  /
    
    R
  • +
    ¡Colabora con nosotros!
    Envíanos tu versión de esta canción






[El gran pozillo criollo chords][El gran pozillo criollo cifra]
© LaCuerda.net · aviso legal · privacidad · es · en · pt · contacto
DINAMICO