Acordes de Guitarra » M »Maldita Jakeca » Mision Amarte (Tab)

Mision Amarte
Maldita Jakeca

Letras, Acordes y Tabs para Guitarra, Bajo y Ukulele

  • Am            Dm
    YA NO TENGO DUDA,
    Am            Dm
    SOY UN PRISIONERO DE TU VANIDAD,
    Am            Dm
    ES CASI UNA LOCURA,
    Am              Dm
    QUE ME TORTURA CADA DÍA Y ME HACE MAL,
    
    F    E7           F                E7
    DÉJAME SENTIRTE ASÍ TAN DISTANTE, TAN LEJOS DE TI.
    
    Am            Dm
    AL VERTE DESNUDA,
    Am            Dm
    ENCIENDES LA LUJURIA DE MI SOLEDAD,
    Am            Dm
    TU PIEL CASI OSCURA
    Am            Dm
    ME OBSESIONA CADA DÍA UN POCO MÁS
    
  • e--------------------------------------------------------------------
    b--------------------------------------------------------------------
    g-----5--7----------5--7----10--9--7--5--7--5---8--7--5--3--2--3-----
    D--7--5--7----5--7--5--7----10--9--7--5--7--5---8--7--5--3--2--3-----
    A--7--3--5----5--7--3--5-----8--7--5--3--5--3---6--5--3--1--0--1-----
    E--5----------3--5---------------------------------------------------
    
    e----------------------------------0---------------------------------
    b----------------------------------0_1-------------------------------
    g-----5--7----------5--8----7--5---2---------------------------------
    D--7--5--7----5--7--5--8----7--5---2---------------------------------
    A--7--3--5----5--7--3--6----5--3---0---------------------------------
    E--5----------3--5---------------------------------------------------
    
    
    Am            Dm
    Ya no tengo duda,
    Am            Dm
    Soy un prisionero de tu vanidad,
    Am            Dm
    
  • +
    ¡Colabora con nosotros!
    Envíanos tu versión de esta canción

Letra de Mision Amarte
YA NO TENGO DUDA,
SOY UN PRISIONERO DE TU VANIDAD,
ES CASI UNA LOCURA,
QUE ME TORTURA CADA DÍA Y ME HACE MAL,
DÉJAME SENTIRTE ASÍ TAN DISTANTE, TAN LEJOS DE TI.
AL VERTE DESNUDA,
ENCIENDES LA LUJURIA DE MI SOLEDAD,
TU PIEL CASI OSCURA
ME OBSESIONA CADA DÍA UN POCO MÁS
DÉJAME SENTIRME ASÍ TAN VULNERABLE, PERO SÓLO PARA TI
MISIÓN AMARTE, ASÍ
MI AMOR, MY LOVE,
ESA ES MI OBSESIÓN,
MISIÓN AMARTE, SOLO A TÍ
I LOVE YOU SO
SOY EL MERCENARIO DE TU AMOR Y DE TUS BESOS
A VECES EL CULPABLE DE LOS MOVIMIENTOS DE TU LECHO,
CUANDO ME MIRAS Y ME ATRAPAS CON TU SEXO,
YO ME VUELVO UN MISIONERO DE LA CURVA DE TU PECHO,
ESTOY VOLANDO ALREDEDOR DE TU PLANETA
PERO YO POR TU AMOR ME ALEJO CADA VEZ MÁS DE LA TIERRA,
TÚ ERES MI JUGO, MI RAZÓN, MI CONEJITA PERRA,
NUNCA PENSÉ AMARTE ASÍ DE ESTA MANERA
DÉJAME SENTIRTE ASÍ TAN DISTANTE, TAN LEJOS DE TI.
MISIÓN AMARTE, ASÍ
MI AMOR, MY LOVE,
ESA ES MI OBSESIÓN,
MISIÓN AMARTE, SOLO A TÍ
I LOVE YOU SO

Video de Mision Amarte
[]




[Mision Amarte chords][Mision Amarte cifra]
© LaCuerda.net · aviso legal · privacidad · es · en · pt · contacto