Tab p/Bajo de Mago De Oz: Molinos de Viento
Mägo De Oz, Txus
La Leyenda de la Mancha
este tab es de la version acustica, el bajo en esta esta afinada de la
siguiente manera
G
D
A
D

primero empieza la guitarra 2 tiempos
despues entra el bajo asi
G--------|------|-----|-----|-----|
D--------|------|-----|-----|-----|
A--------|-2-3-5|5h7-3|3h5-2|-----|
D-0-2-0-2|5-----|-----|-----|5-4-2|

(recuerden que se afina en 'D' la ultima cuerda pero si no quieren 
afinar asi el bajo toquen algunas notas una octaba abajo)
ejemplo de la afinacion normal
G--------|------|-----|-----|-----|
D--------|------|-----|-----|-----|
A-5--5---|-2-3-5|5h7-3|3h5-2|-----|
E--0--0--|3-----|-----|-----|3-2-0|
nota:como ven solo cambia un poco

los primeros versos se tocan igual que el intro
G--------|------|-----|-----|-----|
D--------|------|-----|-----|-----|
A--------|-2-3-5|5h7-3|3h5-2|-----|
D-0-2-0-2|5-----|-----|-----|5-4-2|

y a veses asi
G-------|----|---|---|-----|
D-------|----|---|---|-----|
A-------|-5--|5-3|3-2|-----|
D-0-2---|0---|---|---|5-4-2|

despues entra el puente y el bajo suena asi
G---|--|--|-----|
D---|--|--|-----|
A---|-5|-3|-----|
D-2-|--|--|5-4-2| 


G---|---|---|---|
D---|---|---|---|
A---|--5|5-3|3--|
D-2-|2--|---|--5| 

G---|------|---|---|
D---|------|---|---|
A---|-2-3-5|5-3|3--|
D-5-|5-----|---|--5| 

G---|------|---|---|
D---|------|---|---|
A---|-2-3-5|5-3|3--|
D-5-|5-----|---|--5| 

CORO
G------------|-----|-----|
D------------|-----|-----|
A------------|5-5-5|3-3-3|
D-2-2-2-2-2-2|-----|-----|

G------------|-----|-----|
D------------|-----|-----|
A------------|5-5-5|3-3-3|
D-2-2-2-2-2-2|-----|-----|

G------------|-----|-----|
D------------|-----|-----|
A------------|5-5-5|3-3-3|
D-5-5-5-5-5-5|-----|-----|

G------------|-----|-----|-----|-----|
D------------|-----|-----|-----|-----|
A------------|5-5-5|3-3-3|2-2-2|-----|
D-5-5-5-5-5-5|-----|-----|-----|5-5-5|

despues viene el intermedio
G------|-------|-----|-------|-----|------|------|
D------|-------|-----|-------|-----|-----5|-----7|
A------|7-7-7-7|-----|5-5-5-5|-----|3-3-3-|5-5-5-|
D-2-2-2|-------|2-2-2|-------|0-0-0|------|------|

G------|-------|-----|-------|-----|-------|-------|
D------|-------|-----|-------|-----|-------|-------|
A------|7-7-7-7|-----|5-5-5-5|-----|3-3-3-3|5-5-5-5|
D-2-2-2|-------|2-2-2|-------|0-0-0|-------|-------|

despues entra el requinto de guitarra
el bajo se toca despacio
G---|--|--|-------|
D---|--|--|-------|
A---|-7|--|5-5-5-5|
D-2-|--|0-|-------|

se repite el requinto con 2 guitarras
el bajo suena asi
G------|-------|-----|-------|-----|-------|------|------|
D------|-------|-----|-----5-|-----|-------|-----5|-----7|
A------|7-7-7-5|-----|5-5-5--|-----|5-5-5-5|3-3-3-|5-5-5-|
D-2-2-2|-------|2-2-2|-------|0-0-0|-------|------|------|

G------|-------|-----|-------|-----|-------|-------|-------|
D------|-------|-----|-----5-|-----|-------|-------|-------|
A------|7-7-7-5|-----|5-5-5--|-----|5-5-5-5|3-3-3-3|5-5-5-5|
D-2-2-2|-------|2-2-2|-------|0-0-0|-------|-------|-------|

despues tocan lo del puente pero no cantan
G--------|---|---|
D--------|---|---|
A--------|5--|3--|
D-0-2-0-2|-5-|-5-|

G--------|---|---|
D--------|---|---|
A--------|5--|3--|
D-0-2-0-2|-5-|-5-|

G--------|---|---|
D--------|---|---|
A--------|5--|3--|
D-0-5-0-5|-5-|-5-|

G--------|---|---|
D--------|---|---|
A--------|5--|3--|
D-0-5-0-5|-5-|-5-|

depues entran los versos finales 
los dos primeros suenan asi
G---------|----|-------|-------|
D---------|----|-------|-------|
A---------|5-5-|3-3-3-3|5-5-5-5|
D-2-2--2-2|----|-------|-------|

los ultimos versos suenan asi
G------|-------|-----|-------|-----|-------|------|------|
D------|-------|-----|-----5-|-----|-------|-----5|-----7|
A------|7-7-7-5|-----|5-5-5--|-----|5-5-5-5|3-3-3-|5-5-5-|
D-2-2-2|-------|2-2-2|-------|0-0-0|-------|------|------|

G------|-------|-----|-------|-----|-------|-------|-------|
D------|-------|-----|-----5-|-----|-------|-------|-------|
A------|7-7-7-5|-----|5-5-5--|-----|5-5-5-5|3-3-3-3|5-5-5-5|
D-2-2-2|-------|2-2-2|-------|0-0-0|-------|-------|-------|


despues entra el puente
G--------|---|---|
D--------|---|---|
A--------|5--|3--|
D-0-2-0-2|-5-|-5-|

G--------|---|---|
D--------|---|---|
A--------|5--|3--|
D-0-2-0-2|-5-|-5-|

G--------|---|---|
D--------|---|---|
A--------|5--|3--|
D-0-5-0-5|-5-|-5-|

G--------|---|---|
D--------|---|---|
A--------|5--|3--|
D-0-5-0-5|-5-|-5-|

el coro se toca igual que el puente
G--------|---|---|
D--------|---|---|
A--------|5--|3--|
D-0-2-0-2|-5-|-5-|

G--------|---|---|
D--------|---|---|
A--------|5--|3--|
D-0-2-0-2|-5-|-5-|

G--------|---|---|
D--------|---|---|
A--------|5--|3--|
D-0-5-0-5|-5-|-5-|

G--------|---|---|
D--------|---|---|
A--------|5--|3--|
D-0-5-0-5|-5-|-5-|

al final termina con un arreglo

G------|
D------|
A1-0---|
D---5-2|

eso es todo
dudas o comentarios 
a mi correo
nota. tengo probemas con mi correo de 
theedge@correoweb.com
asi que habri otro
theedge_r@hotmail.com
Este fichero es trabajo propio de su transcriptor y representa su interpretación personal de la canción. El material contenido en esta página es
para exclusivo uso privado, por lo que se prohibe su reproducción o retransmisión, así como su uso para fines comerciales.
© LaCuerda.net · aviso legal · privacidad · es · en · pt · contacto