Tablatura de Mago De Oz: Molinos de Viento
Mägo De Oz, Txus
La Leyenda de la Mancha
WENAS ES MI PRIMERA TABLATURA QUE CUELGO AQUI
Y CREO QUE ESTA BASTANTE BIEN, ES UNA CANCION FACIL
AUNQUE ASI A PRIMERA VISTA PAREZCA LIOSA ESTA MUY FACIL.

e |15--15--15--15--15--15--17p15--15--14h15-15-
B |--------------------------------------------
G |--------------------------------------------
D |--------------------------------------------
A |--------------------------------------------
E |--------------------------------------------

   ----15--15--15--15--15--17p15--15--14h15--15-|
   17-------------------------------------------|
   ---------------------------------------------|
   ---------------------------------------------|
   ---------------------------------------------|
   ---------------------------------------------|

e |----14--14--14--14--14--17p14--14-12h14-14-
B |-15----------------------------------------
G |-------------------------------------------
D |-------------------------------------------
A |-------------------------------------------
E |-------------------------------------------

  |------------12-15----------14-17-|-> La 2ª ->|--15--|
  |--13-13-13--------15-15-15-------|    vez    |------|
  |---------------------------------|  termina  |------|
  |---------------------------------|           |------|
  |---------------------------------|           |------|
  |---------------------------------|x2         |------|

e |----------|---------|--------------|----------|---------|
B |----------|---------|--------------|----------|---------|
G |-7-9--9-7-|-------5-|-------7--7-9-|-7-9--9-7-|-------5-|
D |-7-9--9-7-|-------5-|-------7--7-9-|-7-9--9-7-|-------5-|
A |-5-7--7-5-|-3-3-3-3-|-5-5-5-5--5-7-|-5-7--7-5-|-3-3-3-3-|
E |----------|---------|--------------|----------|---------|

  |--------------|
  |--------------|
  |-------7--7/9-|
  |-------7--7/9-|
  |-5-5-5-5--5/7-|
  |--------------|

e |--------------------|---------------------|---------------|
B |--------------------|---------------------|---------------|
G |----------------7/9-|-----------------9/7-|-------------7-|
D |----------------7/9-|-----------------9/7-|-------------7-|
A |--7-7--7-7--7-7-5/7-|--7-7--7-7--7-7--7/5-|-5-5--5-5--5-5-|
E |--------------------|---------------------|---------------|

   ---------| |--------------|
   ---------| |--------------|  ----> la segunda vez no se repite
   -------5-| |-------"7-7"-|            las comillas
   -------5-| |-------"7-7"-|
   -3-3-3-3-| |-"5-5-5-5—5"-|
   ---------| |--------------|x2



e |-----------------------------------|------|->Repetimos todo
B |-8-5-8-5-8-5--7h8h10-7--5h7h8-5--8-|-"5"-|   excepto las
G |----------------------7------------|------|    comillas
D |-----------------------------------|------|
A |-----------------------------------|------|
E |-----------------------------------|------|x2

  |----------------------7h8h10------------------|
  |-12-8--12-8--12-8--12--------10----8h10h12--8-|
  |--------------------------------11------------|
  |----------------------------------------------|
  |----------------------------------------------|
  |----------------------------------------------|


   ----------|->Repetimos todo|---|
   -"10-12"-|  excepto las   |---|
   ----------|    comillas    |-7-|
   ----------|                |---|
   ----------|                |---|
   ----------|x2              |---|



e|--------------------------------------------|
B|--------------------------------------------|
G|-9-9--9x--9-9-9-9x----7-7-7--7x-----5--5x---|
D|-9-9--9x--9-9-9-9x----7-7-7--7x-----5--5x---|
A|-7-7--7x--7-7-7-7x----5-5-5--5x-----3--3x---|
E|--------------------------------------------|x2


 |---------------------------------------------
 |---------------------------------------------
 |---------------------7x-7-7-7x----5-5-5-5-5--
 |-5-5--5x--5-5-5-5-5--7x-7-7-7x----5-5-5-5-5--
 |-5-5--5x--5-5-5-5-5--5x-5-5-5x----3-3-3-3-3--
 |-3-3--3x--3-3-3-3-3--------------------------

  ------------------------|
  ------------------------|
  -----------------------7|
  5x-5-5--5x--5-5-5-5-5--7|
  5x-5-5--5x--5-5-5-5-5--5|
  3x-3-3--3x--3-3-3-3-3---|

e |-----------------------------------------------------|
B |-----------------------------------------------------|
G |-------9-7-5---------------------------------------4-|
D |-5-7-9-------9-7-5-------------5--4-4-4-4---4-4-4--4-|
A |-------------------9-7-5-------5--4-4-4-4---4-4-4--2-|
E |-------------------------9-7-5-2--2-2-2-2---2-2-2----|



 ----SE REPITO TODO LO TOCADO HASTA AHORA Y LUEGO SEGUIDO VA...

e |---------------------| |---|  |-----| |---|  |------| |---|
B |---------------------| |---|  |-----| |---|  |------| |---|
G |---------------------| |-9-|  |-7-9-| |---|  |-7--5-| |-5-|
D |-4---4-4-4-4---4-4-4-| |-9-|  |-7-9-| |---|  |-7--5-| |-5-|
A |-4---4-4-4-4---4-4-4-| |-7-|  |-5-7-| |-7-|  |-5--3-| |-3-|
E |-2---2-2-2-2---2-2-2-| |---|x6|-----| |---|x6|------| |---|x6

  |-----------------|------------------------------|
  |-----------------|------------------------------|
  |-----7-5--5--7-7-|-9—-7-9---7-5--7-5-5---7-7-—9-|
  |--5--7-5--5--7-7-|-9—-7-9---7-5--7-5-5---7-7-—9-|
  |--5--5-3--3--5-5-|-7—-5-7---5-3--5-3-3---5-5--7-|
  |--3--------------|------------------------------|

   -------------------|
   -------------------|
   -9---7--5-5--7-7---|
   -9---7--5-5--7-7---|
   -7---5--3-3--5-5---|
   -------------------|

e|--7-7-7-7--------------------|-7-7-7-7-5------------|
B|----------10-8-7-8--10-8-7---|------------8-7-8-7-~~|
G|---------------------------9-|--------------------9-|
D|-----------------------------|----------------------|
A|-----------------------------|----------------------|
E|-----------------------------|----------------------|

  ---7-7-7-7--------------------|----------------------|
  ----------10-8-7-8--10-8-7----|-----7-8h10p8p7---8---|
  ---------------------------9--|-7h9------------9---9-|
  ------------------------------|----------------------|
  ------------------------------|----------------------|
  ------------------------------|----------------------|

   -----AHI METEN UN SOLO DE GUITARRA Y LUEGO...

e |-----------------------------------|------|->Repetimos todo
B |-8-5-8-5-8-5--7h8h10-7--5h7h8-5--8-|-"5"-|   excepto las
G |----------------------7------------|------|    comillas
D |-----------------------------------|------|
A |-----------------------------------|------|
E |-----------------------------------|------|x2
                                                  _
                                                   |
  |----------------------7h8h10------------------| |
  |-12-8--12-8--12-8--12--------10----8h10h12--8-| |
  |--------------------------------11------------| |-TODO ESTO
  |----------------------------------------------| |  LO HACE
  |----------------------------------------------| |  DOS VECES
  |----------------------------------------------| |
                                                  _|

e|--------------------------------------------|
B|--------------------------------------------|
G|-9-9--9x--9-9-9-9x----7-7-7--7x-----5--5x---|
D|-9-9--9x--9-9-9-9x----7-7-7--7x-----5--5x---|
A|-7-7--7x--7-7-7-7x----5-5-5--5x-----3--3x---|
E|--------------------------------------------|x2


e |-----------------------------------------------------|
B |-----------------------------------------------------|
G |-------9-7-5---------------------------------------4-|
D |-5-7-9-------9-7-5-------------5--4-4-4-4---4-4-4--4-|
A |-------------------9-7-5-------5--4-4-4-4---4-4-4--2-|
E |-------------------------9-7-5-2--2-2-2-2---2-2-2----|

  |---------------------------------------------
  |---------------------------------------------
  |---------------------7x-7-7-7x----5-5-5-5-5--
  |-5-5--5x--5-5-5-5-5--7x-7-7-7x----5-5-5-5-5--
  |-5-5--5x--5-5-5-5-5--5x-5-5-5x----3-3-3-3-3--
  |-3-3--3x--3-3-3-3-3--------------------------

                           _
                            |
   ------------------------||
   ------------------------||
   -----------------------7|| TODO
   5x-5-5--5x--5-5-5-5-5--7|| ESTO
   5x-5-5--5x--5-5-5-5-5--5|| 2 VECES
   3x-3-3--3x--3-3-3-3-3---||
                           _|

   Y SE VUELVE A REPETIR LA PARTE FINAL, ACABANDO
   DE DISTINTA FORMA, , CON UN POCO
   DE OIDO SE COGE RÁPIDO.



ESPERO QUE OS GUSTE

SALUD
Este fichero es trabajo propio de su transcriptor y representa su interpretación personal de la canción. El material contenido en esta página es
para exclusivo uso privado, por lo que se prohibe su reproducción o retransmisión, así como su uso para fines comerciales.
© LaCuerda.net · aviso legal · privacidad · es · en · pt · contacto