Tablatura para Guitarra de Mago De Oz: Mi nombre es rock'n roll
Conexión · Inscripción
Letras y Acordes
Pantalla Completa
Imprimir
Versión Texto
Añadir Favorito
Otras Versiones

Mostrar Diagramas
Desfile Automático
Manipular Acordes
Formato del Texto


Mi nombre es rock'n roll(TAB)

Mago De Oz

calidad:
mdoz1521
AUTOR: Txus Difellatio
ALBUM: La Ciudad de los Arboles (2007)
Enviado por Abraham
Esta canción esta mas basada en
lo k es Hard Rock.
El intro básicamente
eso es lo k tocan.

--------------------------------------------------
--------------------------------------------------
-------------5b*-------------7--5-----7--5-------- X2
------5--7--------7-7/-------------7--------7--7~-
---7----------------------------------------------
--------------------------------------------------
*es un bending muy ligero

(0:18)
--------------------------------------------------------
--------------------------------------------------------
---------------5~---------------7--5------7--5----------
-----5--7--7-------7--7--7/-----------7----------7--7~--
--7-----------------------------------------------------
--------------------------------------------------------

--------------------------------------------------------
--------------------------------------------------------
---------------5~---------------7--5------7--5------7b--
-----5--7--7-------7--7--7/-----------7----------7------
--7-----------------------------------------------------
--------------------------------------------------------

(0:31)
----------------------------
----------------------------
--7--/7--5------------------
------------7--5-----5--7---
------------------7---------
----------------------------


A5 G5 Siempre fui lo que quise ser
D5 A5 y nunca me arrepentí, noo
A5 G5 A veces salgo fuera de la ley
D5 A5 y luego vuelvo a entrar
A5 G5 No tengo fronteras, mi patria es mi nevera
D5 A5 mi himno es un rock & roll
A5 G5 Tengo bragas por bandera y por casa tus caderas
D5 A5 Cuando el sol se pone, yo también.
C5 D5 Mi moto es mi uniforme
A5 (trágate kilómetros, pisa y ponla a 100)
C5 D5 E5 La carretera es nuestro hogar yeah
A5 F5 Si quieres rock, si buscas rock,
G5 A5 mi nombre es rock and roll
A5 F5 Nada de amor, sólo sudor.
G5 A5 Mi moto, sexo y rock yeah
A5 F5 Si quieres rock, si buscas rock,
G5 A5 mi nombre es rock and roll
F5 G5 Y cuando muera que se lea en mi tumba
E5 mi nombre es rock and roll
A5 G5 Nunca creí en la Biblia, noo
D5 A5 ni en la toga ni el Corán
A5 G5 Mi fe en un libro no cabe, es mucho más
D5 A5 está hecha de libertad!!!
A5 G5 Viviré, viajaré, moriré, vestiré
D5 A5 sin traje ni corbata que me haga sudar
A5 G5 el viento peina mis recuerdos barre los malos momentos
D5 A5 La velocidad me aleja de mí
C5 D5 Nos siguen los maderos
A5 (trágate km, pisa y ponla a 100)
C5 D5 E5 Si vas cargado, tírala
A5 F5 Si quieres rock, si buscas rock,
G5 A5 mi nombre es rock and roll
A5 F5 Nada de amor, sólo sudor.
G5 A5 Mi moto, sexo y rock yeah
A5 F5 Si quieres rock, si buscas rock,
G5 A5 mi nombre es rock and roll
F5 G5 Y cuando muera que se lea en mi tumba
E5 mi nombre es rock and roll FIN Esta canción esta basada en la secuencia de 3 acordes del Hard Rock y lleva una distorsión diferente a la k normalmente usa mago de oz (esta es un poco mas ligera y chillona) Espero k les sirva es una gran cancion no muy al genero de Mago, pero aun asi les kedo muy bien. Cualquier corrección, duda, sugerencia, comentario, pregunta, colaboración, petición, queja, aclaración, declaración romántica, amenaza de muerte, sermones, regaños, insultos, halagos, saludos o simplemente para tirarme en la madre o platicar agrégame a mi correo. soad244@hotmail.com CALIFIQUEN POR FAVOR!!!
Este fichero es trabajo propio de su transcriptor y representa su interpretación personal de la canción. El material contenido en esta página es
para exclusivo uso privado, por lo que se prohibe su reproducción o retransmisión, así como su uso para fines comerciales.

© LaCuerda.net · Aviso Legal · Privacidad