Acordes de Guitarra » M »Magdalena Matthey » Mariposas (Tab)

Mariposas
Magdalena Matthey

Letras, Acordes y Tabs para Guitarra, Bajo y Ukulele

  • e----------------------------------------
    B----------------------------------------
    G--0--------0---------0----------0-------
    D--0--------0---------0----------0-------
    A----------------------------------------
    E----3--3------3---------3--3-------3----
    
    ----------------------------------------
    ----------------------------------------
    ---2--------2---------2----------2------
    ---2--------2---------2----------2------
    ----------------------------------------
    ----3--3------3---------3--3-------3----
    
    -------------------------          ------------------------
    ------------0------------          ------------------------
    ---2---------------------          ---2---------2----------
    ---1---------------------   x4     ---2---------2----------   x2
    -------------------------          ------------------------
    --------3-------3--------          ------3--3------3-------
    
  • +
    ¡Colabora con nosotros!
    Envíanos tu versión de esta canción

Letra de Mariposas
Mírame…
como a las mariposas
Su belleza, te enamora…
Y como las entiendes
cuando ves que se transforman
Mariposas…
Háblame como lo haces con ellas
Dulcemente, largas horas
Cómo te vuelve loco
Cuando ves que no se alejan, mariposas
Tómame entre tus manos
Así en silencio y dame tu sombra
Acaríciame suave
que yo no pierda color ni forma
Déjame libre cuando me veas inquieta
Me veas ansiosa
Que no es para escaparme
Yo vuelvo cuando tu amor me nombra
Búscame sabes donde se alojan
Al rocío de la aurora
Vuelan de rosa en rosa
Corazones tornasol
Le gusta estar a solar
Pero vuelven
Tómame entre tus manos
Así en silencio y dame tu sombra
Acaríciame suave
que yo no pierda color ni forma
Déjame libre cuando me veas inquieta
Me veas ansiosa
Que no es para escaparme
Yo vuelvo cuando tu amor me nombra
*
-3-
-3-
-2-
-0-
-0-
-2-

Video de Mariposas
[ver más videos]




[Mariposas chords][Mariposas cifra]
© LaCuerda.net · aviso legal · privacidad · es · en · pt · contacto