Acordes de Guitarra » M »Mac Salvador » Isabel (Tab)
  • Letra y Acordes
               SIm                  LA
    Yo ande por ti cual mendigo de amor
          SIm            FA#m
    y te busque en mi soledad
           RE  LA         SIm
    para vivir si preso de ti
    
    No pienso amor perderte jamás
    no dejes que me quede sin ti
    no volveré no a vivir otra vez
    
        RE
    De tanto que te busque
        RE
    de tanto que te llore
           SIm
    y te encontre
       RE
    viviendo en mi soledad
       RE
    
  • Tablatura
    TAB|-10g7---7-7---7-7---7-7---7-10-12-|/TAB
    TAB|------7-----7-----7-----7---------|/TAB
    TAB|------7-----7-----7-----7---------|/TAB
    TAB|-9------9-----9-----9-------------|/TAB
    TAB|----------------------------------|/TAB
    TAB|----------------------------------|/TAB
    
    
    
    TAB|-10g7---7-7---7-7---7-7---9-7----7-|/TAB
    TAB|------7-----7-----7-----7-----10-7-|/TAB
    TAB|------7-----7-----7-----7--------7-|/TAB
    TAB|-9------9-----9-----9------------9-|/TAB
    TAB|-----------------------------------|/TAB
    TAB|-----------------------------------|/TAB
    
    se repite la parte de arriba
    
    punteo inicial
    
    
  • Tablatura
    SIm
    1)-10/7----7-7---7-7---7--10--10/12----10/7----7-7---7-7----9--7-----
    2)------7------7-----7----------------------7------7-----7--------10-
    3)------------------------------------------------------------------- (x2)
    4)--9------9-9---9-9--------------------9------9-9---9-9------------- (***)
    5)-------------------------------------------------------------------
    6)-------------------------------------------------------------------
    
    1)-------------------------------5-5/7-5-----777/10---555/7---2------
    2)-------2-3---2-3-5-----5-7-5-7---------7---888------666-----3------
    3)-4-2-4-----4-------6-7---------------------------------------------
    4)-------------------------------------------------------------------
    5)-------------------------------------------------------------------
    6)-------------------------------------------------------------------
    
    1)------------------------------------------------
    2)------------------------------------------------
    3)------------------------------------------------
    4)----4-2---2---2-4--------4-2---2---2-4----------
    5)--2-----5---5-----2----2-----5---5------2-------
    
  • Tablatura
    SIm
    1)-9/7-----7----7---9/7-7---9/7-----7-----7-9-7-------
    2)-------7----7---7---------------7-----7-------10----
    3)-----7----7-------------------7-----7---------------
    4)----------------------------------------------------
    5)----------------------------------------------------
    
    1)-9/7-----7----7---9/7-7---9/7-----7-----7-9-7----7--
    2)-------7----7---7---------------7-----7-------10----
    3)-----7----7-------------------7-----7---------------
    4)----------------------------------------------------
    5)----------------------------------------------------
    
    1)---------------0-2-0-2-4-5-4-5/7-5-----777/9------
    2)-------2-3-2-3---------------------7----------7---
    3)-4-3-4----------------------------------------7---
    4)--------------------------------------------------
    5)--------------------------------------------------
    
    1)------------------------------------------------
    
  • Tablatura
    E|--9p7---7-7---7-7---7--10-10/12-|--9p7---7-7---7-7---9-7h9p7--------|
    B|------7-----7-----7-------------|------7-----7-----7---------10-----|
    G|--7---7-----7-----7-------------|--7---7-----7-----7----------------|
    
    
    E|--9p7---7-7---7-7---7--10-10/12-|--9p7---7-7---7-7---9-7h9p7----(7)-|
    B|------7-----7-----7-------------|------7-----7-----7---------10-----|
    G|--7---7-----7-----7-------------|--7---7-----7-----7----------------|
    
    E|----------------------|-------2-|---2-4-5h7-5---|-777h9-7p5---|
    B|--------2-3-|---2-3-5-|-2-3-5---|-5-----------7-|-----------7-|
    G|--4-3-4-----|-4-------|---------|---------------|-------------|
    
                             PM
    E|----------------------|---------------------|
    B|----------------------|---------------------|
    G|----11-9-7-9-7-9-11---|---------------------|
    D|--9-----------------9-|----4-2-0-2-0-2-4----|
    A|----------------------|--2---------------2--|
    
    
  • +
    ¡Colabora con nosotros!
    Envíanos tu versión de esta canción

Letra de Isabel
Yo ande por ti cual mendigo de amor
y te busque en mi soledad
para vivir si preso de ti
No pienso amor perderte jamás
no dejes que me quede sin ti
no volveré no a vivir otra vez
De tanto que te busque
de tanto que te llore
y te encontre
viviendo en mi soledad
bebiendo llanto de amor
para ser felíz
Me revele con mi destino
buscandote para ser felíz
Hoy te encontre en mi camino
no puedo ya vivir sin ti.
Una canción muy hermosa,de un paisaino nuestro,
Nasqueño de Corazón, apoyemos lo nuestro.
UN MENSAJE DE LA AGRUPACION FOLKLORICA
'NOSTALGIA NASQUEÑA'.



© LaCuerda.net · aviso legal · privacidad · contacto