Acordes de Guitarra » L »Luke Brodie » No te merezco (Tab)

No te merezco
Luke Brodie

Letras, Acordes y Tabs para Guitarra, Bajo y Ukulele

  • ||--------------------------------|e/mi
    ||--------------------------------|b/si
    ||o------------------------------o|g/sol
    ||o---7-----5-----4-----4h5h4-4--o|d/re
    ||--5---5-5---5-5---5-5------5-5--|A/La
    ||--------------------------------|E/Mi
    
                                                     G1
    |------------------------------------------------3--|e/mi
    |-----------------------------------------------(3)-|b/si
    |----------------------------------------2--0--0-0--|g/sol
    |--4--4---5--5-5h4--4--2---2--4--4-4h2--0--0--0--0--|d/re
    |-2--2--2--2-------2-0---0---0--0----------------2--|A/La
    |--------------------------------------3--3--3---3--|E/Mi
    
    
    (En casi todas las estrofas se toca palm muted)
    D9             A
    No puedo dormir
                G
    
  • +
    ¡Colabora con nosotros!
    Envíanos tu versión de esta canción

Letra de No te merezco
(En casi todas las estrofas se toca palm muted)
No puedo dormir
Tampoco sentir lo
A/D9
Lo que debo
No quiero fingir
Lo que es vivir, no
Yo no quiero
(Aqui se toca el acorde abierto)
Con todo lo que he dicho y hecho
No te merezco
No te merezco
Con todo lo que ha pasado ya
No te merezco
A/D9
No te merezco
Me quedo aquí
O voy por ahí, no
Se que hacer
Con todo lo que vi
Y lo que perdí, tu
Eres todo
Dime que sentir
Como debo vivir
Y no te diré que me tengo que ir
Dime que hacer
Vida con placer
Y prometo no dejarte caer
Final:
Acordes utilizados:
Sigue practicando BodoKa, animo¡

Video de No te merezco
[]




[No te merezco chords][No te merezco cifra]
© LaCuerda.net · aviso legal · privacidad · es · en · pt · contacto