Acordes de Guitarra » L »Lujuria » Dejad que los niños se acerquen a mi (Tab)

Dejad que los niños se acerquen a mi
Lujuria

Letras, Acordes y Tabs para Guitarra, Bajo y Ukulele

  • intro
    Solo 1:
    E---------------------------------------------------------I
    B-----7-8---7--------------------7-8-7-8-10-8-10/13-12----I
    G---9---------9-7--------------9--------------------------I
    D-9---------------10-9-7-7h9-9----------------------------I
    A---------------------------------------------------------I
    E---------------------------------------------------------I
            *(aki entra la guitarra 2)
    
    E-12--10-7h8p7--------------------------------------------I
    B----------------10-8-7-8--10-10/12-----------------------I
    G---------------------------------------------------------I
    D---------------------------------------------------------I
    A---------------------------------------------------------I
    E---------------------------------------------------------I
    
    
    *Guitarra 2:
    E---------------------------------------------------------I
    B---------------------------------------------------------I
    G---------------------------------------------------------I
    D-9-----------------------7--------
  • +
    ¡Colabora con nosotros!
    Envíanos tu versión de esta canción



Video de Dejad que los niños se acerquen a mi
[]




[Dejad que los niños se acerquen a mi chords][Dejad que los niños se acerquen a mi cifra]
© LaCuerda.net · aviso legal · privacidad · es · en · pt · contacto