Acordes de Guitarra » L »Lujuria » Corazón de heavy metal (Tab)

Corazón de heavy metal
Lujuria

Letras, Acordes y Tabs para Guitarra, Bajo y Ukulele

  • Intro: D5 - E5 - D5 - A5 - C5 - B5 - C5   D5 - C5 - D5 
    
    E5 - D5 - A5 - C5 - B5 - C5   D5 - C5 - D5 - E5
    
    
    
    
    E5                            C5   G5 - F#5 - G5   A5 - G5 - A5
      Su objetivo era hacerme callar.
    E5                                                     C5 - E5   F#5 - G5
      El cuerpo molido, sigo en pie y con fuerzas para hablar.
    D5 A5     E5                    C5 B5 C5      G5 F#5 G5         D5 - A5
     Si no quieren pelo hasta en la sopa  se lo tienen que encontrar.
    C5 B5  G5 D5   C5   B5  E5   
    Se lo tienen que encontrar.
    
    
    Me hice amigo de los cuatro que amaban el rock n'roll.
    Nos llamaban tipos raros, melenudos, ¡qué se yo!
    De mil formas lo intentaron, pero nada los cambió.
    
  • Nota:
    Cuando pongo --0-0-0..--- significa k es mas veces pero k no las he 
    contado,
    lo oyes y ya está.
    
    Esta peaso de canción empieza tal k asi: (distorsión al tope) 
    
    e|-----------|-------------------------------------------------------
    B|-----------|-------------------------------------------------------
    G|-7---------|--9---------------------7----------------5-4-5---7-5-7-
    D|-7---------|--9---------------------7---7------------5-4-5---7-5-7-
    A|-5---5-5-5-|--7---7-7-7-7-7-7-7..---5---7--7-7-7..---3-2-3---5-3-5-
    E|-----------|------0-0-0-0-0-0-0..-------5--5-5-5..-----------------
           pm...        pm.............           pm.....
    
    e|-----------------------------------------------------------
    B|-----------------------------------------------------------
    G|--9----------------------7----------------5-4-5---7-5-7----
    D|--9----------------------7---7------------5-4-5---7-5-7----
    A|--7---7-7-7-7-7-7-7..----5---7--7-7-7..---3-2-3---5-3-5----
    E|------0-0-0-0-0-0-0..-
  • +
    ¡Colabora con nosotros!
    Envíanos tu versión de esta canción

Letra de Corazón de heavy metal
Su objetivo era hacerme callar.
El cuerpo molido, sigo en pie y con fuerzas para hablar.
Si no quieren pelo hasta en la sopa se lo tienen que encontrar.
Se lo tienen que encontrar.
Me hice amigo de los cuatro que amaban el rock n'roll.
Nos llamaban tipos raros, melenudos, ¡qué se yo!
De mil formas lo intentaron, pero nada los cambió.
Pero nada nos cambió.
Punteo 1 (durante el punteo, la segunda guitarra mantiene B5)
Yo soy fuego por dentro,
corazón de heavy metal.
Yo soy fuego por dentro,
corazón de heavy metal.
Me he colgado una guitarra, sin ella no sé vivir.
He aguantado sus miradas, ya no me pueden herir.
Mi futuro esta muy claro, con el rock voy a vivir.
Y la razón es que...
Yo, soy fuego por dentro, ]
corazón de heavy metal. ] REPITE
Yo soy fuego por dentro, ]
corazón de heavy metal. ]
Punteo 1:

Video de Corazón de heavy metal
[]




[Corazón de heavy metal chords][Corazón de heavy metal cifra]
© LaCuerda.net · aviso legal · privacidad · es · en · pt · contacto