Acordes de Guitarra » L »Luis Miguel » Soy Yo (Tab)
  • Letra y Acordes
    Bb,F7,Gm,Rm,Cm7,F7,Cm7,F7
    
          Bb                 Gm                            Rm ,Cm7,F7,Rm7
    SOY YO,QUIEN MIRA LA LLUVIA Y SE ACUERDA DE TI.......SOYYO.....
    
          Gm7                Dm7             Gm       Dm
    TAMBIEN,A QUIEN LE HACES FALTA Y SE SIENTE MORIR......SOY YO.....
    
        F#              F#m               F#dim     C#       
    SOY YO,QUIEN POR TU PALABRA HA EMPEZADO A SENTIR,AQUEL.
    
                Fm7               Bbm               Gm7
    A QUIEN EN EL CIELO LO HAS HECHO VIVIR,NO LE DES MAS VUELTAS,
    
                Cm7         F7
    SIN LUGAR A DUDAS.........YO SOY..........
    
    
        Bb                  Gm                  Dm,Cm7,F7,Rm7
    SOY YO....QUIEN BUSCA EL ENCUENTRO  PARA  SER DE TI.....SOY YO.....
    
  • Tablatura
      A       E       D       C#m    F#m  A       D       Bm
    
    E-----12------12------10--9-----------9-9-7---------10-7-
    B-14------12------10----------9-9-7------------10-10-----
    G---------------------------------------------9----------
    D---14--14--14--14--12--12--11-------9-------------------
    A--------------------------------------------------------
    E--------------------------------------------------------
    
    E-----12------12------10--9------------7-5---5-4--
    B-14------12------10----------9-9-7-----5--7------
    G-----------------------------------------7-------
    D---14--14--14--14--12--12--11-------9------------
    A-------------------------------------------------
    E-------------------------------------------------
    
         A                                                    Bm       F#m    D-E
    Soy yo, quien mira la lluvia y se acuerda de ti, soy yo
    
         E                    F#m                         D
    
  • +
    ¡Colabora con nosotros!
    Envíanos tu versión de esta canción

Letra de Soy Yo
SOY YO,QUIEN MIRA LA LLUVIA Y SE ACUERDA DE TI.......SOYYO.....
TAMBIEN,A QUIEN LE HACES FALTA Y SE SIENTE MORIR......SOY YO.....
SOY YO,QUIEN POR TU PALABRA HA EMPEZADO A SENTIR,AQUEL.
A QUIEN EN EL CIELO LO HAS HECHO VIVIR,NO LE DES MAS VUELTAS,
SIN LUGAR A DUDAS.........YO SOY..........
SOY YO....QUIEN BUSCA EL ENCUENTRO PARA SER DE TI.....SOY YO.....
Y SOY....QUIEN TODO LO HA DADO SIN PENSAR EN MI......YO SOY....
(ESTRIBILLO)
AQUEL QUE UNA ESTRELLA DEL CIELO TE QUIERE BAJAR
QUEIN SOLO AL TENERTE DESPIERTA CON GANAS DE AMAR.
QUIEN MAS SE TE ARRIMA.....QUIEN MAS TE ADIVINA.........SOY YO....

SI UN DIA EL UNIVERSO COMPLETO TU QUIERES TE DOY.........
NO OLVIDES UN LOCO EN EL MUNDO TU TIENES YO SOY........
QUIEN MAS TE HA ANHELADO,Y MAS TE HA ESPERADO.......SOY YO



© LaCuerda.net · aviso legal · privacidad · contacto