Acordes de Guitarra » L »Luis Fonsi » No me doy por vencido (Tab)

No me doy por vencido
Luis Fonsi

Letras, Acordes y Tabs para Guitarra, Bajo y Ukulele

  •  D
    Me quedo callado
                        A
    Soy como un niño dormido
                     F#
    Que puede despertarse
                        Bm
    Con apenas sólo un ruido
                         G
    Cuando menos te lo esperas
                       Em
    Cuando menos lo imagino
                          A                D
    Sé que un día no me aguanto y voy y te miro
    
                        A
    Y te lo digo a los gritos
                    F#                 Bm
    Y te ríes y me tomas por un loco atrevido
                          G                         Em
    
  •  D
    Me quedo callado
                        A
    Soy como un niño dormido
                     F#m
    Que puede despertarse
                        Bm
    Con apenas sólo un ruido
                         G
    Cuando menos te lo esperas
                       Em
    Cuando menos lo imagino
                          A                D
    Sé que un día no me aguanto y voy y te miro
    
                        A
    Y te lo digo a los gritos
                    F#m                 Bm
    Y te ríes y me tomas por un loco atrevido
                          G                         Em
    
  •    D# D#                A#               Cm G#               A#    A#
    e|------------------------|----------------|--------------------------|
    B|-----11-11-11-11--9-8-6-|-6-6-8--9/8-6-8-|-------------6-8-6-----11-|
    G|--8--12-12-12-12-10-8-7-|-7-7-8-10/8-7-8-|--8--8--8--8-7-8-7---8----|
    D|--8---------------------|----------------|-10-10-10-10-------8------|
    A|------------------------|----------------|--------------------------|
    E|------------------------|----------------|--------------------------|
    
               D#
    Me quedo callado
                        A#
    Soy como un niño dormido
                     Gm
    Que puede despertarse
                        Cm
    Con apenas sólo un ruido
                         G#
    Cuando menos te lo esperas
                       Fm
    Cuando menos lo imagino
    
  • RE(D):   1:4ta Dos para Abajo, 2:5ta Dos para Abajo,
    (Esto se repite dos veces)
    LA(A):   1:5ta Dos para Abajo, 2:6ta Dos para Abajo
    Fa#(F#): 1:6ta Dos para abajo, 2:5ta Dos para abajo
    Sim(Bm): 1:5ta Dos Para abajo, 2:6ta Dos para abajo,
    (Esto se toca en el 2do traste)
    SOL(G):  1:6ta Dos para Abajo, 2:4ta Dos para Abajo
    LaM(AM): 1:5ta Dos para abajo, 2:6ta Dos para abajo
    
    
    Segunda Guitarra:
    e------------------------|
    B-----11-11-11-11--9-8-6-|
    G--8--12-12-12-12-10-8-7-|
    D--8---------------------|
    A------------------------|
    E------------------------|
    
    e----------------|
    B-6-6-8--9s8-6-8-|
    
  • ENTRAS EN:
    
    G|---------|
    D|-1---1-1-|
    A|---------|
    E|---------|
    
    Y TE MIRO.......
    
    VERSO
    
    G|---|---|---|---|---|---|
    D|---|---|---|---|---|---|
    A|-1-|---|-3-|---|---|-1-|
    E|---|-3-|---|-4-|-1-|---|
    
    Y TE LO DIGO A LOS GRITOS......
    
    
    CORO
    
    G|---------|---|---|---|---|---|---|---------|
    D|-1---1-1-|---|---|---|---|---|---|-1---1-1-|
    A|---------|-1-|---|-3-|---|---|-1-|---------|
    E|---------|---|-3-|---|-4-|-1-|---|---------|
    
    YO, YO NO ME DOY POR VENCIDO....
    
    G|------|---|---------|
    D|------|---|-1---1-1-|
    A|------|-1-|---------|
    E|-4-1-4|---|---------|
    
    UNA SEÑAL DEL DESTI-I-NO....
    
    
    VERSO
    
    TENGO UNA FLOR DE BOLSILLO....
    
    
    VERSO
    
    QUE BRILLA MAS CADA DIA.....
    
    
    CORO
    
    YO, YO NO ME DOY POR VENCIDO....
    
    
    G|------|---|---|
    D|------|---|---|
    A|------|-1-|---|
    E|-4-1-4|---|-4-|
    
    UNA SEÑAL DEL DESTI-I-NO....
    
    
    G|---|---|-----|---------|---|---|
    D|-1-|---|-----|---------|---|---|
    A|---|-1-|---3-|---------|---|-1-|
    E|---|---|-3---|-3---3-3-|-1-|---|
    
    ESTE SILENCIO .......
    
    
    CORO
    
    YO,  YO NO ME 
  • +
    ¡Colabora con nosotros!
    Envíanos tu versión de esta canción
  • Tutorial
    HD
    Como tocar No Me Doy Por Vencido LUIS FONSI en Guitarra (HD)
    Tutorial
    8:07
  • Tutorial
    HD
    Como tocar No me doy por vencido Luis Fonsi en guitarra (HD)
    Tutorial
    3:54
  • Tutorial
    como tocar no me doy por vencido de luis fonsi guitarra tutorial
    8:32

Letra de No me doy por vencido
Me quedo callado
Soy como un niño dormido
Que puede despertarse
Con apenas sólo un ruido
Cuando menos te lo esperas
Cuando menos lo imagino
Sé que un día no me aguanto y voy y te miro
Y te lo digo a los gritos
Y te ríes y me tomas por un loco atrevido
Pues no sabes cuanto tiempo en mis sueños has vivido
Ni sospechas cuando te nombré
Yo, yo no me doy por vencido
Yo quiero un mundo contigo
Juro que vale la pena esperar, y esperar y esperar un suspiro
Una señal del des - ti - no
No me canso, no me rindo, no me doy por vencido
Tengo una flor de bolsillo,
Marchita de buscar a una mujer que me quiera
Y reciba su perfume hasta traer la primavera
Y me enseñe lo que no aprendí de la vida
Que brilla más cada día,
Porque estoy tan sólo a un paso de ganarme la alegría
Porque el corazón levanta una tormenta enfurecida
Desde aquel momento en que te ví…
Yo, yo no me doy por vencido
Yo quiero un mundo contigo
Juro que vale la pena esperar, y esperar y esperar un suspiro
Una señal del des - ti - no
No me canso, no me rindo, no me doy por vencido
Este silencio esconde demasiadas palabras
No me detengo, pase lo que pase seguiré
Yo, yo no me doy por vencido
Yo quiero un mundo contigo
Juro que vale la pena esperar, y esperar y esperar un suspiro
Una señal del des - ti - no
No me canso, no me rindo, no me doy por vencido
Juro que vale la pena esperar, y esperar y esperar un suspiro
Una señal del des - ti - no
No me canso, no me rindo, no me doy por vencido




[No me doy por vencido chords][No me doy por vencido cifra]
© LaCuerda.net · aviso legal · privacidad · es · en · pt · contacto