Acordes de Guitarra » L »Luis Fonsi » Nada es para siempre (Tab)

Nada es para siempre
Luis Fonsi

Letras, Acordes y Tabs para Guitarra, Bajo y Ukulele

  • LAm, DO, RE, MIm (2 veces)
    -----------------------------------------------------------------
                   LAm
    Nada es para siempre amor,
             DO        RE             MIm
    hoy nos toca compartir la misma luna.
               LAm
    Y mañana quién sabrá
            DO         RE             MIm
    si hay una separación o habrá fortuna.
                LAm         DO      RE             MIm
    Nadie sabe amor, nadie sabe qué podrá pasar mañana.
                  LAm           DO            RE            MIm
    Quiero amarte hoy, quiero abrir todas las puertas de mi alma.
    
    **Coro
              LAm           DO            RE        MIm
    Te quiero hoy. Quiero abrirle al corazón una ventana.
              LAm           DO            RE        MIm
    Esto es amor, y es tan grande que no caben mis palabras.
    
  • E ------------------------------------------------------------------------------
    B -----------------------------------1----1-----1---------------1------3-----
    G------------------------------------2----2----2----------------0------0-----
    D------------------------------------2----2----2----------------2------4-----     + E   (bis)
    A--------------------------5----0-------------------0---1------ 3------5-----
    E------0----2-----3-----------------------------------------------------------
    
    
      Am
    Nada es para siempre amor,
             C        G7              Em
    hoy nos toca compartir la misma luna.
               Am
    Y mañana quién sabrá
            C         G7              MIm
    si hay una separación o habrá fortuna.
                Am         C      G7              Em
    Nadie sabe amor, nadie sabe qué podrá pasar mañana.
                  Am           C            RG7M            Em
    Quiero amarte hoy, quiero abrir todas las puertas de mi alma.
    
  •               Am            C Arrasta al 3ro fret C? Em C? Em
    e|------------0-------------0---------------------0--0--0--0---
    B|------------0h1-----------1---------------------3--0--3--0---
    G|------------2-------------0---------------------0--0--0--0---
    D|--------0---2-------------2---------------------4--2--4--2---
    A|---------0--0----0-2-2h3--3---------------------5--2--5--2---
    E|--0-2h3-----0-------------0---------------------0--0--0--0---
    
                  Am            C Arrasta al 3ro fret C? Em C? Em
    e|------------0-------------0---------------------0--0--0--0---
    B|------------0h1-----------1---------------------3--0--3--0---
    G|------------2-------------0---------------------0--0--0--0---
    D|--------0---2-------------2---------------------4--2--4--2---
    A|---------0--0----0-2-2h3--3---------------------5--2--5--2---
    E|--0-2h3-----0-------------0---------------------0--0--0--0---
    
    SOLO:
    
                  Am            C Arrasta al 3ro fret C? Em C? Em
    e|------------0-------------0---------------------0--0--0--0---
    
  •               Am             C             Em
    e|------------------0----------------------2----0----2---0--
    B|--------------0h1------------1------3-------0--------0----
    G|-------------2--------------0------0--------0--------0----
    D|--------0---2--------------2----2h4---------2--------2----
    A|---------0------------0-2--3----3h5------2---------2------
    E|--0-2h3---------------------------------------------------
    
                  Am             C             Em
    e|------------------0----------------------2----0----2---0--
    B|--------------0h1------------1------3-------0--------0----
    G|-------------2--------------0------0--------0--------0----
    D|--------0---2--------------2----2h4---------2--------2----
    A|---------0------------0-2--3----3h5------2---------2------
    E|--0-2h3---------------------------------------------------
    
    
    SOLO:
    
                  Am             C             Em
    
  • +
    ¡Colabora con nosotros!
    Envíanos tu versión de esta canción
  • Tutorial
    HD
    Como Tocar ( Nada Es Para Siempre )
    Guitarra tutorial(HD)
    9:36

Letra de Nada es para siempre
Nada es para siempre amor,
hoy nos toca compartir la misma luna.
Y mañana quién sabrá
si hay una separación o habrá fortuna.
Nadie sabe amor, nadie sabe qué podrá pasar mañana.
Quiero amarte hoy, quiero abrir todas las puertas de mi alma.
Te quiero hoy. Quiero abrirle al corazón una ventana.
Esto es amor, y es tan grande que no caben mis palabras.
Quiero amarte hoy, quiero amarte hoy, por si no hay mañana.
Quiero amarte hoy, quiero amarte hoy, por si no hay mañana.
*
Somos como arena y mar
somos más que una ilución por que no hay duda.
Y esta historia de los dos, es tan linda como nunca hubo ninguna.
Nadie sabe amor, nadie sabe qué podrá pasar mañana.
Quiero amarte hoy, quiero abrir todas las puertas de mi alma.
>Cualkiero cosa me escriben a mi e-mail. Esta fue mi primera
colaboración.




[Nada es para siempre chords][Nada es para siempre cifra]
© LaCuerda.net · aviso legal · privacidad · es · en · pt · contacto