Acordes de Guitarra » L »Luis Fonsi » Dime como vuelvo a tener tu corazón (Tab)

Dime como vuelvo a tener tu corazón
Luis Fonsi

Letras, Acordes y Tabs para Guitarra, Bajo y Ukulele

  • Intro: Am - Dm - G - C - E
    
    
    e|---------8-9-8.-8/9-9-9------9-11-11/13-13-14-14-------6/9-8-8/6----
    B|----9-11---------------------------------------------9-----------9--
    G|---8--------------------6/10-----------------------8----------------
    D|-10-----------------------------------------------8-----------------
    A|-------------------------------------------------6------------------
    E|--------------------------------------------------------------------
    
    e|-8-9-11--8---------9-----------------------------------|
    B|-----------10-8--9-------------------------------------|
    G|---------------------10.----------10-------------------|
    D|-------------------------10/11/13----13--11/13/11-10.--|
    A|-------------------------------------------------------|
    E|-------------------------------------------------------|
    
    
    Am
     Nunca olvidaré
    
  • +
    ¡Colabora con nosotros!
    Envíanos tu versión de esta canción

Letra de Dime como vuelvo a tener tu corazón
Nunca olvidaré
Las noches de calor
Tu forma de amar
Las horas de pasión
Extraño nuestro amor
En cada amanecer
Fue contigo que aprendí a querer
Con tu adiós yo sé
Que me perdí, sin tí
Dime cómo vuelvo a tener tu corazón
Cómo vuelvo a ser de nuevo tu gran amor
Vuelve ya que se va mi vida
Y no estás, en dónde estás
Todavía me parece oír
Como ayer tu voz
Siento que aún estás
Por, por dónde yo voy
Que no haría por volverte a ver
Y no dejarte ir
Al perderte
Yo perdí mi ser
Ya no sé qué hacer
Lloro por tí
Muero sin tí
Dime cómo vuelvo a tener tu corazón
Cómo vuelvo a ser de nuevo tu gran amor
Vuelve ya que se va mi vida
Y no estás, en dónde estás
Cómo hacer
Cómo olvidar
Ya no puedo más
Lloro por tí
Muero sin tí"
Dime cómo vuelvo a tener tu corazón
Cómo vuelvo a ser de nuevo tu gran amor
Vuelve ya que se va mi vida
Y no estás, en dónde estás
en donde estas
*Cualkier duda o error xfa avisa x msn ps...xD




[Dime como vuelvo a tener tu corazón chords][Dime como vuelvo a tener tu corazón cifra]
© LaCuerda.net · aviso legal · privacidad · es · en · pt · contacto
DINAMICO