Acordes de Guitarra » L »Luis Alberto Spinetta » Yo miro tu amor (Tab)

Yo miro tu amor
Luis Alberto Spinetta

Letras, Notas, Punteos, Tablaturas y Acordes de Guitarra (Tabs & Chords)

  • Letra y Acordes
    Dm6/9: x5345x
    Ebm6/9: x6456
    Em6/9: x7567x
    Bsus4: x24400
    A5: x022xx
    G5: 355xxx
    
    Intro y riff:
    e|-----0-------------------------------|--||-------------------------|
    b|-------3-----------------------------|--||-------------------------|
    g|-2/4------2p0---0--4--2b4p3p2p0------|--||-------------------------|
    d|--------------2-----------------2--2-|x4||-0-2-0-----0-------------|
    a|-------------------------------------|--||-------2-0---2-----------|
    E|-------------------------------------|--||---------------5-4-3b--0-|
    
    Dm6/9 - (Dm6/9 - Ebm6/9)
    
    Estrofa 1:
    Em6/9            Dm6/9
     En tanto que la lluvia
    
  • Tablatura
    E------------------------------------------------------------------------
    B------------------------------------------------------------------------
    G------------------------------------------------------------------------
    D-------------------5----------------------------------------------------
    A-----------------------7------------------------------------------------
    E-----7---5---5b---------------------------------------------------------
    
    
    Riff:
    
    E---------------0--0--0---------------------------------------------------
    B-----2/3-------3--3--3---------------------------------------------------
    G------3/4-----------------4/2---0--------0--2/4--------------------------
    D-------------------------------------2----------2--2---------------------
    A-------------------------------------------------------------------------
    E-------------------------------------------------------------------------
    
    E---------------0--0--0---------------------------------------------------
    B-----2/3-------3--3--3---------------------------------------------------
    G------3/4-----------------4/2---0--------0--2/4--------------------------
    
  • +
    ¡Colabora con nosotros!
    Envíanos tu versión de esta canción

Letra de Yo miro tu amor
Estrofa 1:
En tanto que la lluvia
lava, mis desgracias
yo miro tu amor
Estrofa 2:
(igual)
Hay un dogo
que me asusta nena
quizás, inutilmente
apuro mi paso
Estrofa 3:
(igual)
Violento, mediodía gris
pone fuego
a la lenta cumbia.
Fin: Solo sobre E

Videos de Yo miro tu amor
[ver más videos]

[ver todas las canciones]


© LaCuerda.net · Aviso Legal · Privacidad