Acordes de Guitarra » L »Luis Alberto Spinetta » Castillo de Piedra (Tab)

Castillo de Piedra
Luis Alberto Spinetta

  • Letra y Acordes
    Intro: F5    Bb5 C5 C#5 G#5 X7
    
    
    Bb5                          C5 C#5 G#5 Bb5
    A ver con cual nos quedamos
                       C5 C#5 G#5 Bb5
    Tenemos que decidir,
                           C5 C#5 G#5 Bb5
    aunque esté desesperado
                          C5 C#5
    hay tiempo para elegir.
    
    
    G#5 Bb5 C5 C#5
    Oh no,
    G#5 Bb5 C5 C#5
    Oh yeah,
    G#5 Bb5 C5 C#5
    Oh no,
    G#5 Bb5 C5 C#5
    
  • Tablatura
    Bb5: x133xxx
    C5: x355xx
    C#5: x466xx
    G#5: 466xxx
    D#5: x688xx
    F#5: 244xxx
    G#5: 466xxx
    F5: 133xxx
    
    Intro:                            (Riff)
    e|------------------------||-----------------|--|------------|--||
    b|------------------------||-----------------|--|------------|--||
    g|------------------------||-3-3---5--6------|--|-3-3---8--6-|--||
    d|-3-3-3-3-3-3-3-3-3-3-3-3||-3-3---5--6---6--|x3|-3-3---8--6-|x2||
    A|------------------------||-1-1---3--4---6--|--|-1-1---6--4-|--||
    E|------------------------||--------------4--|--|------------|--||
    PM..........................
    
    Estrofa 1:
    Bb5                          C5 C#5 G#5
    
  • Tab p/Bajo
    G|-----------------------------------------------
    D|-----------------------------------------------
    A|-8--8--8--8--8--8--8--8--8--8--8--8--8--8--8--8
    E|-----------------------------------------------
    
                         (4 veces)                     (4 veces)
          (7 veces)          …a ver con… (3 veces)         …mucho tiempo…
    G|---|----------|------------------|----------|------------------|
    D|---|----------|------------------|----------|------------------|
    A|---|-3-4------|-3-4--------------|-3-4------|-3-4--------------|
    E|-6-|------4-6-|------4-6---------|------4-6-|------4-6---------|
    
    
      (4 veces)                    (3 veces)
    G|----------|--------|----------------------------|
    D|----------|--------|---3---3---3---3---3-------3|
    A|-3-4------|-3-4----|-3---3---3---3---3----4-3---|
    E|------4-6-|------4-|----------------------------|
    
                                                              (19 veces)
    G|---------------------------------------------------|---|----------|
    D|---
  • +
    ¡Colabora con nosotros!
    Envíanos tu versión de esta canción

Letra de Castillo de Piedra
A ver con cual nos quedamos
Tenemos que decidir,
aunque esté desesperado
hay tiempo para elegir.
Oh no,
Oh yeah,
Oh no,
Oh yeah.-
Mucho tiempo ha pasado
Desde que estamos aquí
Muchas armas a mi lado
Eso no es para mí.-
Oh no…
Un castillo de piedra
Miro las aves pasar,
No creas que soy muy listo
Pero yo aquí he de quedar.-
Oh no…



© LaCuerda.net · aviso legal · privacidad · contacto