Acordes de Guitarra » L »Lucas Conslie » Tu Amor (Tab)

Tu Amor
Lucas Conslie

Letras, Acordes y Tabs para Guitarra, Bajo y Ukulele

  • E|---------------0----------------| Primera cuerda
    B|---------------0----------------|
    G|---------------0----------------|
    D|-----------------9--------------|
    A|-------------------11-----------|
    E|---------------0----------------| Sexta cuerda
    
    E|-------0------------------------| Primera cuerda
    B|-------0------------------------|
    G|-------0------------------------|
    D|------------------13------------|
    A|---------------11---------------|
    E|-------0------------------------| Sexta cuerda
    
    E|-------0------------------------| Primera cuerda
    B|-------0------------------------|
    G|-------0------------------------|
    D|-------------8------------------|
    A|---------------9----------------|
    E|-------0------------------------| Sexta cuerda
    
  • Intro: G#m B F# C#m x2
    
    Estrofas:
    G#m                  B            F#
                En Los Cielo Y En La Tierra,
    C#m          G#m B   F# C#m
    Vemos Tu Poder
    G#m                 B          F#
               En La Creación Y El Rededor,
    C#m         G#m B   F# C#m
    Vemos Tu Amor
    
    Pre-Coro:
    E      B   F#
    En Tu Luz Siempre Andaremos Jesús
    E      B   F#
    De Tu Amor No Desistiremos Señor
    E      B   F#
    Tu Verdad En Mis Labio Siempre Estará
     E             F#
    
  • +
    ¡Colabora con nosotros!
    Envíanos tu versión de esta canción

Letra de Tu Amor
En los cielo y en la tierra, vemos tu poder
En la creación y el rededor, vemos tu amor
En tu luz siempre andaremos jesús
De tu amor no desistiremos señor
Tu verdad en mis labio siempre estará
Dios a ti me rindo
Tu amor está en este lugar
Tu espíritu llena mi ser
Tu gracia nos alcanzara
Al ver tu gloria y tu poder
Cautivados por tu voz
Conducidos por tu corazón
Nos postramos ante ti
Y te adoro, y te adoro.




[Tu Amor chords][Tu Amor cifra]
© LaCuerda.net · aviso legal · privacidad · es · en · pt · contacto