Acordes de Guitarra » L »Loquillo » Cuando vengan a por tí (Tab)

Cuando vengan a por tí
Loquillo

Letras, Acordes y Tabs para Guitarra, Bajo y Ukulele

  •  B----------------------------------------------------------------------------------------------  
     G----------------------------------------------------------------------------------------------
     D----------------------------------------------------------------------------------------------
     A--0--0--0-0h3-0---0---0--0---0-0h3-0----0---0-0h3-0--0-0h3-0--0--0h3-0--0-0h3-0--0h3-0--0h3-0-  
     E-3--3--3--------3---3---3---3---------3---3---------3--------3---------3--------3------3------
    
    
     e--------------------------
     B--------------------------
     G--------------------------
     D--------------------------
     A---0-0h3-0---0-0h3--------  
     E-3---------3--------------
    
    
     Tocado con algo de "palm mute" para hacer el sonido más pesado. Luego entran los acordes y una 
     guitarra a lo Hank Marvin:
    
    
       LAm-LAm      LAm             SOL                      RE    DO                 LAm
    
  • +
    ¡Colabora con nosotros!
    Envíanos tu versión de esta canción

Letra de Cuando vengan a por tí
Tocado con algo de "palm mute" para hacer el sonido más pesado. Luego entran los acordes y una
guitarra a lo Hank Marvin:
PM... + + + +
Cuando vengan a por ti ten tu rifle bien cargado
el dedo firme en el gatillo y no tiembles al usarlo.
Cuando vengan a por ti renunciarás a tu pasado
sabrán poner en duda todo aquello que has amado
En el coro de nuevo la guitarra a lo "Apache":

PM PM ....
**************** ******************
2x 2x
(Cuando vengan a por ti yo no podré estar a tu lado
alguien de mí se habrá ocupado y asunto liquidado.)
De fondo los acordes de los primeros versos: LAm-SOL-RE-DO-LAm
Se vuelven a repetir los acordes de la primera parte, y después (1:42),
estos bonitos acordes:

Y cuando reaparece el Loco con "La caza ha terminado...":

(La caza ha terminado y tú estás en la lista
en tiempos de silencio instinto suicida)
Y después de "instinto suicida" este arreglillo:
hb br br hb br br hb br br hb br br br br br br br br
Esto último así no suena mal, aunque también se puede hacer con un solo ataque
a cada nota con vibrato y manteniendo la duración (triplicandola)
Vuelve los acordes del principio, con arreglos sobre ellos (eso ya me puede),
y acaba con la intro.
hb=half-bend (medio bend)
br=bend&repick (mantener el bend, y volver a atacar la cuerda)
+=vibrato




[Cuando vengan a por tí chords][Cuando vengan a por tí cifra]
© LaCuerda.net · aviso legal · privacidad · es · en · pt · contacto
DINAMICO