Acordes de Guitarra » L »La Liga del Sueño » No es amor (Tab)

No es amor
La Liga del Sueño

Letras, Acordes y Tabs para Guitarra, Bajo y Ukulele

  •         G5                          C5
    No es amor, son solo manchas en el pantalón
    e--------------------------------------------------
     --------------------------------------------------
     -------------------------------------------3/5-3--
     --------------------------------------------------
     --------------------------------------------------
     --------------------------------------------------
           G5                       C5
    No es amor, son solo gotas de sudor en tu corazon
    e--------------------------------------------------
     ---------8T--------------------------------------
     -------------------------------------------3-5-3--
     ------------------------------------5----5--------
     --------------------------------3-5---------------
     --------------------------------------------------
    
    RIFF 1
    e----------------------------
     -3+-3-3+-3-3+-3-------------
    
  • +
    ¡Colabora con nosotros!
    Envíanos tu versión de esta canción

Letra de No es amor
No es amor, son solo manchas en el pantalón
No es amor, son solo gotas de sudor en tu corazon
RIFF 1
no es amor
son solo manchas en pantalon
no es amor
son solo gotas de sudar en tu corazon
no es amor
son solo ropas a tu alrededor, a tu alrededor
no debiste quitarte el pantalon
en el parque, esa noche no
no quisiera pasar otra noche
en la carcel no, si no es amor
doy vueltas de mi callejon
pateando un par de latas
ella sale al balcon
se rie, ella comienza,
es un rito habitual
hacerlo en cualquier parte
es una cosa normal
Vamos donde quierasal parque del amor
sube la marease levanta el calor
Dicen que Romeo se suicida por ti
y yo soy un salvaje y quiero algo para mi
no es amor
son solo manchas en pantalon
no es amor
son solo gotas de sudar en tu corazon
no es amor
son solo ropas a tu alrededor, a tu alrededor
no debiste quitarte el pantalon
en el parque, esa noche no
no quisiera pasar otra noche
en la carcel no, si no es amor, no es amor
RIFF 1
Subo con mi chica a mi habitacion
nadie nos molesta es una vieja pension
entran x la ventana ruidos de la ciudad
debajo de las sabanas vamos a jugar
La escena se repite todos los dias
mira como muevo, nunca dejo de actuar
el sol esta saliendo, ella se sige comiendo
la noche ha sido larga, ya vamos a acabar
no es amor
son solo manchas en pantalon
no es amor
son solo gotas de sudar en tu corazon
no es amor
son solo ropas a tu alrededor, a tu alrededor
no es amor
no es amor
no es amor
no es amor
Dudas o consultas
jdrb22@hotmail.com
phigienico.blogspot.com/
elperuyyo.blogspot.com/
antiojoscomunica.blogspot.com/

Video de No es amor
[]




[No es amor chords][No es amor cifra]
© LaCuerda.net · aviso legal · privacidad · es · en · pt · contacto