Acordes de Guitarra » L »La Liga del Sueño » Mala sangre (Tab)

Mala sangre
La Liga del Sueño

Letras, Acordes y Tabs para Guitarra, Bajo y Ukulele

  • -----------------------------------------------------
    
    (Colocar capo en el primer traste)
    
    INTRO : E - A 
    
    E|-----------------------------------
    B|-----------------------------------
    G|-----------------------------------        
    D|--1--2--1--2--1--2----------------- 
    A|--------------------2~~4--2--0-----       E - A - B - F#m (X2)
    E|----------------------------------- 
          
    ------->1
    
          Nunca fui de este pueblo
          A
     
          Jamas fui un cristiano, No
                 E
    
  • INTRO : E - A
          Nunca fui de este pueblo
          A
          Jamas fui un cristiano, No
                 E
          siempre fui raza inferior
          A
    Coro:
          A quien venderme, que bestia adorar
                       F#m            A
          a que imagen santa atacar
                E
          que corazones destrozare
                  B
          que mentira debo sostener
                  F#m
          sobre que sangre ...caminare?
                     A             E
          Ahora maldito estoy
           A
    
  • MI    : 022100
    MI13  : 022200
    LA    : 002220
    F#m   : 244222
    SI    : 224442
    
    INTRO:
    
    MI (1 Vez)  MI13 (varias)
    
    BAJO:
    
        MI                MI13     MI
    
    E|-------------------------------------
    B|-------------------------------------
    G|-------------------------------------
    D|--1----2--1--2--1----2---------------
    A|------------------------2/4--2--0----
    E|-------------------------------------
    
  •        MI  MI13  MI
    
    
        MI                MI13     MI
    E|-------------------------------------
    B|-------------------------------------
    G|-------------------------------------        
    D|--1----2--1--2--1----2--------------- 
    A|------------------------4--2--0------       
    E|-------------------------------------
    
    
        MI                LA      SI            LA
    E|--14-------14--16-----------12----12--12--12----------
    B|------12-----------14--12--------------------10--10---
    G|------------------------------------------------------       
    D|------------------------------------------------------
    A|------------------------------------------------------      
    E|------------------------------------------------------
    
    
  • +
    ¡Colabora con nosotros!
    Envíanos tu versión de esta canción

Letra de Mala sangre
Nunca fui de este pueblo
Jamas fui un cristiano, No
siempre fui raza inferior
A quien venderme, que bestia adorar
a que imagen santa atacar
que corazones destrozare
que mentira debo sostener
sobre que sangre ...caminare?
Ahora maldito estoy
sere ocioso y brutal
no soy ni fui un prisionero de mi razón
(si dios me concediera la calma celestial)
gritos tambor hambre sed
A quien venderme, que bestia adorar
a que imagen santa atacar
que corazones destrozare
que mentira debo sostener
sobre que sangre ...caminare?
La vida una farsa
mi inocencia podria hacerme llorar (Bis)
Nunca fui de este pueblo
Jamas fui un cristiano, No
siempre fui raza inferior
A quien venderme, que bestia adorar
a que imagen santa atacar
que corazones destrozare
que mentira debo sostener
sobre que sangre ...caminare?
A quien venderme, que bestia adorar
a que imagen santa atacar
que corazones destrozare
que mentira debo sostener
sobre que sangre ...caminare?
INSTRUMENTAL UHHH UHHH

Video de Mala sangre
[]




[Mala sangre chords][Mala sangre cifra]
© LaCuerda.net · aviso legal · privacidad · es · en · pt · contacto