Acordes de Guitarra » L »León Gieco » La mamá de Jimmy (Tab)

La mamá de Jimmy
León Gieco

Letras, Acordes y Tabs para Guitarra, Bajo y Ukulele

  • e|-------------------------------|
    B|-------------------------------|
    G|----------5-3~~----------------|
    D|-5-5-5-3-----------5-3---------|
    A|--------5-------------5-4-3----|
    E|---------------------------6-3-|
    
    SOL
    La mama de Jimmy es una Inglesa,
    que critica esta tierra,
    MIm             DO
    pero no se da cuenta,
    MIm             A
    pero no se da cuenta,
    DO              RE         SOL
    que en el sur están sus ovejas.
    
    Intro x2
    
    SOL
    
  • Intro:
    
    e|------------|-------------------|-----------------|--|
    B|------------|-------------------|-----------------|--|
    G|------------|-5-3h4p3h4p3h4p3h4-|-----------------|x4|
    D|-5-(5~)-3---|-------------------|-5-3-------------|--|
    A|----------5-|-------------------|-----5-4-3-------|--|
    E|------------|-------------------|-----------6-(3)-|--|
    
    
    Estrofa 1:
    
    e|-------------------------------------------|--|---------|---------|------------------|
    B|-------------------------------------------|--|---------|---------|------------------|
    G|-------------------------------------------|x2|---------|---------|------------------|
    D|-------------------------------------------|--|-(7)-(7)-|-(3)-(3)-|------------------|
    A|-3--3-3--3-3--3-3--3-3--3-3--3-3--3-3--3-3-|--|-(5)-(5)-|-(5)-(5)-|-3--3-3--3-3--3-3-|
    E|-5--5-5--5-5--5-5--5-5--5-5--5-5--5-5--5-5-|--|---------|---------|-5--5-5--5-5--5-5-|
    PM .  ...  ...  ...  ...  ...  ...  ...  ...                          .  ...  ...  .
  • D/---5-5-5-3---5-3-5-3--------------
    A/-----------5----------5-4-3-------
    E/-----------------------------6-3--
    
    Riff 2
    
    g/----------------------------
    D/-----------2-5-2------------
    A/-----1/2-5-------5--1/2-----
    E/---3--------------------3---
    
    Intro: Riff 1 x4
    
    SOL
    La mama de Jimmy es una inglesa
    que critica esta tierra
    MIm            DO
    Pero no se da cuenta
    MIm            LA
    pero no se da cuenta
    
  •   Bueno este tema esta bastante dificil, pero esta
      muy bueno, ojala q les guste, saludos.
    
    armonica en C:
    
    a)   = aspirado
    a    = soplado
    a/b  = se tocan las dos notas juntas
    ab   = bending
    (vib)= vibrato
    
    
    1º riff:
    
       (2)  (2)(vib)  (2)  2 4 (3)b (2/3)           x4
    
    
       ...que en el sur están sus ovejas
    
    
       (2)  (2)(vib)  (2)  2 4 (3)b (2/3)           x2
    
    
       ...que todas sus pinturas le quedan mal
    
    2º riff:
    
       (2) (2) (3)b (4) 5 6 5 4 (3)b (2)
    
       laralalailaila....
    
       (2) (2) (3)b (4) 5 6 5 4 (3)b (2)
    
       laralalailaila...
    
    1º riff
    
       (2)  (2)(vib)  (2) 2 4 (3)b (2/3)           x4
    
       ...pero se dan vuelta para insultar una chica al pasar
    
       (2)  (2)(vib)  (2) 2 4 (3)b (2/3)           x2
    
       ...a todos los gusanos de su panza
    
    2º riff:
    
       ...a todos los gusanos de su panza.
    
       (2) (2) (3)b (4) 5 6 5 4 (3)b (2)
    
    
       laralalailaila....
    
       (2) (2) (3)b (4) 5 6 5 4 (3)b (2)
    
       laralalailaila...
    
    1º riff:
    
       (2)  (2)(vib)  (2) 2 4 (3)b (2/3)            x2
    
    solo:
    
       (4
  • +
    ¡Colabora con nosotros!
    Envíanos tu versión de esta canción

Letra de La mamá de Jimmy
La mama de Jimmy es una Inglesa,
que critica esta tierra,
pero no se da cuenta,
pero no se da cuenta,
que en el sur están sus ovejas.
Hay mujeres en la ciudad,
que critican lo actual
pero no se dan cuenta
pero no se dan cuenta
que todas sus pinturas le quedan mal.
Estribillo: (x2)
Laralarailaraila Laralarailaraila Laralarailarailailalaralaraira
Hay hombres en la ciudad
que critican lo actual,
pero se dan vuelta,
pero se dan vuelta para insultar una chica al pasar.
Un señor muy gordo un dia me preguntó,
si no me daba verguenza estar asi vestido,
y yo le respondí, que hiciera callar,
a todos los gusanos de su panza.
Estribillo: (x2)
Laralarailaraila Laralarailaraila Laralarailarailailalaralaraira




[La mamá de Jimmy chords][La mamá de Jimmy cifra]
© LaCuerda.net · aviso legal · privacidad · es · en · pt · contacto