Acordes de Guitarra » L »Leo Masliah » Imaginate m´hijo (Tab)

Imaginate m´hijo
Leo Masliah

Letras, Acordes y Tabs para Guitarra, Bajo y Ukulele

  •   Asus2: X0220X
         Am: X0221X
      Asus4: X0223X
    Aadd#11: X0224X
       B7/A: X0120X
         A5: X0225X
    
    INTRO:
    
       Asus2                       Asus2
    1:---------------------------|------------------------|e
    2:----0---0---0---0---0---0--|---0---0---0-----0---0--|b
    3:---------------------------|------------------------|c
    4:------1---2---1---2---1----|-----1---2---1-2---1----|d
    5:-0-------------------------|-0----------------------|a
    6:---------------------------|------------------------|E
    
       Asus2                            Asus2
    1:--------------------------------|----------------------------------|e
    2:---0---0---0-----0--------------|---0---0---0---0---0---0---0---0--|b
    
  • +
    ¡Colabora con nosotros!
    Envíanos tu versión de esta canción

Letra de Imaginate m´hijo
Cuando tu infancia se desvanezca, cuando tu cuerpo crezca,
cuando al hablar de modo indebido, te sientas atrevido,
cuando te estés independizando, cuando estés trabajando,
cuando por no estar muy bien vestido te sientas inhibido...
Imaginate m'hijo, imaginate...
Cuando admires bolsillos ajenos, cuando te sientas menos,
cuando abusen de tí un día, cuando te esten utilizando,
cuando un día llegues a entusiasmarte, cuando estés por casarte,
cuando en alguna casa de citas te reventés la guita...
Imaginate m'hijo, imaginate...
Cuando en tus labios se imprima un tango, cuando estés sin un mango,
cuando al no poder comprarte un saco, soñés con un atraco,
cuando arrugue tu voz el tabaco, cuando te pongas flaco,
cuando en la cama con un Mafalda ella te de la espalda...
Imaginate m'hijo, imaginate...
Cuando el aguinaldo hayas cobrado, cuando estés embalado,
cuando hagas horas extra de noche, para comprarte un coche,
cuando de luchar estés cansado, cuando te hayas gastado,
cuando tus sueños se hagan pedazos y te duelan los brazos...
Imaginate m'hijo, imaginate...
Cuando tu mirada se humedezca, cuando algo en tí perezca,
cuando te sumerjas en los vasos y llores tus fracasos,
cuando algún día estés recordando, cuando estés meditando,
cuando una vez digas a tu hijo "Imaginate m'hijo"...
Imaginate m'hijo, imaginate...
Imaginate m'hijo, imaginate...




[Imaginate m´hijo chords][Imaginate m´hijo cifra]
© LaCuerda.net · aviso legal · privacidad · es · en · pt · contacto
DINAMICO